Song name
# A B C D E F G H I J K L M N O P Q R S T U V W X Y Z

Third Eye Blind - Sharp Knife tab

-------------------------------------------------------------------------------
			     SHARP KNIFE - Third Eye Blind
-------------------------------------------------------------------------------
Tabbed by: Robbie Vogel
Email: vogelra@bc.edu  --  PLEASE EMAIL ME IF YOU KNOW THE CHORDS OR HAVE THE WHOLE SONG

Tuning: Standard

e|-----------------------------------------------------------------------------|
B|------------14------------14------12------------10--12------10--9-----12-10--|
G|---11--14---------11--14------14------14----9------------9----------11-------|
D|-----------------------------------------------------------------------------|
A|-----------------------------------------------------------------------------|
E|-----------------------------------------------------------------------------|

e|-----------------------------------------------------------------------------|
B|-------14------12-----15-14-12-14-----------12-----10-9----12-10-------------|
G|-11-14------14----14--------------14-----14------9------11-------------------|
D|--------------------------------------14-------------------------------------|
A|-----------------------------------------------------------------------------|
E|-----------------------------------------------------------------------------|
Tap to rate this tab
# A B C D E F G H I J K L M N O P Q R S T U V W X Y Z