Song name
# A B C D E F G H I J K L M N O P Q R S T U V W X Y Z

Third Eye Blind - Bonfire tab

song      : bonfire
artist    : third eye blind
tabbed by : oneshotnothing


standard tuning


INTRO/VERSE

e--|--------------------------------|--------------------------------|s
b--|----------9-----------2---------|------2-----------0---------0---|
g--|6-----------7-----2-------2---2-|----2-----2---2-------2-1-------|
d--|4-------7-----0-------------0---|0-------------2---------2-------|
a--|--------------------------------|--------------------------------|
E--|--------------------------------|--------------------------------|
    ^   ^   ^   ^   ^   ^   ^   ^   |^   ^   ^   ^   ^   ^   ^   ^   |
    1       2       3       4       |1       2       3       4       |

e--|--------------------------------|--------------------------------|
b--|----------9-----------2--h3p2---|------2-----------5---------5---|
g--|6-----------7-----2-----------2-|----2-----2---2-------2-2h4--/6-|
d--|4-------7-----0-----------------|0-------------2---------2-------|
a--|--------------------------------|--------------------------------|
E--|--------------------------------|--------------------------------|
    ^   ^   ^   ^   ^   ^   ^   ^   |^   ^   ^   ^   ^   ^   ^   ^   |
    1       2       3       4       |1       2       3       4       |


PRECHORUS - pretty close to right i guess

e--|--------------------------------|
b--|--------------------------------|
g--|----------9---------------9-----|
d--|------9-------7-------7-------7-|
a--|7---7---7---7---9---9---9---9---|
E--|--------------------------------|
    ^   ^   ^   ^   ^   ^   ^   ^   |
    1       2       3       4       |

e--|--------------------------------------------------------|
b--|------------------------------------------10-h12-10-----|
g--|------------------9-------------------9--------------9--|
d--|-----------9-------------9-----9-h-11-------------------|
a--|11-----11-----11-----11-----12--------------------------|
E--|--------------------------------------------------------|
    ^      ^      ^      ^      ^      ^      ^      ^      |
    1             2             3             4             |

e--|--------------------------------|
b--|--------------------------------|
g--|----------9---------------9-----|
d--|------9-------7-------7-------7-|
a--|7---7---7---7---9---9---9---9---|
E--|--------------------------------|
    ^   ^   ^   ^   ^   ^   ^   ^   |
    1       2       3       4       |

e--|--------------------------------------------|
b--|----------------------------10--------------|
g--|------------------9---------9---------------|
d--|-----------9-------------9--11--------------|
a--|11-----11-----11-----11-----12--------------|
E--|--------------------------------------------|
    ^      ^      ^      ^      ^   ^   ^   ^   |
    1             2             3       4       |


CHORUS - chords

e--|-----|-----|-----|-----|
b--|10---|10---|-----|10---|
g--|11---|9----|9----|11---|
d--|0----|11---|9----|11---|
a--|12---|0----|7----|9----|
E--|-----|-----|-----|-----|
    D     A     E     Fm

Tap to rate this tab
 
# A B C D E F G H I J K L M N O P Q R S T U V W X Y Z