Song name
# A B C D E F G H I J K L M N O P Q R S T U V W X Y Z

Third Eye Blind - Crystal Baller tab

j.angeli tab... Crystal Baller by Third Eye Blind
h = hammer , p = pull

Intro/Verse

e-1-----0-------------------3------------1p0---------------3---|
B----1-----1-------------3-----3--------------3----------3---3-|
G-------------2-------2----------------2---------2-----2-------|
D-3----------------2--------------0h3---------------2----------|
A--------------------------------------------------------------|
E--------------------------------------------------------------|


e---------1p0-----------------3------------3----------3-|
B--------------3-----------3-----3------------3-------3-|
G------2----------2-----2------------------------0----0-|
D-0h3----------------2--------------------------------0-|
A---------------------------------------2-------------2-|
E------------------------------------3----------------3-|

Chorus (listen to song for timing..)

e----------------------------------------------------------------|
B----------------------------------------------------------------|
G----------------------------------------------------------------|
D---3-3------7-7--------5-5-5--------3-3----7-7--10-5-5-5--------|
A---3-3------7-7--------5-5-5--then--3-3----7-7--10-5-5-5--------|
E---1-1------5-5--------3-3-3--------1-1----5-5--8--3-3-3--------|


That's the basic jist of it.... enjoy
Tap to rate this tab
 
# A B C D E F G H I J K L M N O P Q R S T U V W X Y Z