Song name
# A B C D E F G H I J K L M N O P Q R S T U V W X Y Z

Third Eye Blind - Bonfire tab

-----------------------------------------------------------------------------
			     BONFIRE - Third Eye Blind
-------------------------------------------------------------------------------
Tabbed by: Steve Dubuque
Email: sdubuque_vp@hotmail.com

Tuning: Standard (EADGBE)


0:00

e|---------------2-----------------------------------------------------------|
B|------x-x------------2-----------2-------0-------0-------------------------|
G|--6---x-x---2------2----2--2---2---2---2---2--1----------------------------|
D|--4--------------0-------0---0---------2-----(2)---------------------------|
A|---------------------------------------------------------------------------|
E|---------------------------------------------------------------------------|

e|---------------2-----------------------------------------------------------|
B|------x-x------------2-3p2--------2-------5----------5---------------------|
G|--6---x-x---2------2-------2----2---2---2---2--(2h4)-----------------------|
D|--4--------------0------------0---------2-------2--------------------------|
A|---------------------------------------------------------------------------|
E|---------------------------------------------------------------------------|


0:35

e|---------------2-------0--------------0------------------------------------|
B|------x-x------------2---2-------2------0-------0--------------------------|
G|--6---x-x---2------2-------2---2---2--2---2--1-----------------------------|
D|--4--------------0-----------0--------2-----(2)----------------------------|
A|---------------------------------------------------------------------------|
E|---------------------------------------------------------------------------|

e|---------------2-------0--------------0---------0--------------------------|
B|------x-x------------2---2-------2------0----------------------------------|
G|--6---x-x---2------2-------2---2---2--2---2--1-----------------------------|
D|--4--------------0-----------0--------2-----(2)----------------------------|
A|---------------------------------------------------------------------------|
E|---------------------------------------------------------------------------|


Prechorus     
0:46 
(arranged for one acoustic)

e|-----0---0-----0---0-----0---0----------5-7-5-(0)-------------------------|
B|-------0---------0---------0------------5-5-5-(0)-------------------------|
G|---------------------------------------------------------------------------|
D|--------------------------------6/7-7-7------------------------------------|
A|--------------------------------0---0-0------------------------------------|
E|--0---------2--------2/4---------------------------------------------------|

e|-------0--------0----------0--5~--5-5--------------------------------------|
B|-----0---0----0---0------0----5~--5-5--------------------------------------|
G|------------------------------2~--2-2--------------------------------------|
D|----------------------------------2-2--------------------------------------|
A|----------------------------------0-0--------------------------------------|
E|--0--------2--------2/4----------------------------------------------------|



Chorus     
0:56

e|-5---5--(0)---2-2-5-5-------5--5--(0)---------0-0--------------------------|
B|-2---2---0----2-2-2-2-------2--2---0---10-10--0-0--------------------------|
G|-2---2---9----2-2-2-2-------2--2---9----x--x--9-9--------------------------|
D|-0---2---9----4-------------0--2---9---11-11--9-9--------------------------|
A|-----0---7---------------------0---7----9--9--7-7--------------------------|
E|---------0-------------------------0---------------------------------------|




************************************

| /   slide up
| \   slide down
| h   hammer-on
| p   pull-off
| ~   vibrato
| +   harmonic
| x   Mute note
| b   Bend
| pb  Pre-bend
| br  Bend release
| pbr Pre-bend release
| brb Bend release bend

************************************
Tap to rate this tab
 
# A B C D E F G H I J K L M N O P Q R S T U V W X Y Z