Song name
# A B C D E F G H I J K L M N O P Q R S T U V W X Y Z

Third Eye Blind - Jumper tab

JUMPER by THIRD EYE BLIND
                  Custom made by - Tjgale89 a.k.a YourLvlTutee

Fm Strum Pattern - Down, Down, Up, Down, Down, Up
C Strum Pattern  - Down, Up, Down, Up, Down, Up
G Strum Pattern  - Down, Down, Up, Down, Down, Up, Up, Down, Down, Up, Down, Up  (tempo is a lil
                                                                                faster in G chord)


          Fm                 C                          G

E|--0--0--0--0--0--0--------------------3--3--3--3--3--3--3--3--3--3--3--3-----|
B|--1--1--1--1--1--1--1--1--1--1--1--1--3--3--3--3--3--3--3--3--3--3--3--3-----|
G|--2--1--1--1--1--1-----------------------------------------------------------|
D|--3--3--3--3--3--3--2--2--2--2--2--2-----------------------------------------|
A|--3--3--3--3--3--3--3--3--3--3--3--3--2--2--2--2--2--2--2--2--2--2--2--2-----|
E|--1--1--1--1--1--1--------------------3--3--3--3--3--3--3--3--3--3--3--3-----|    x2

          Fm                  C                  G

E|--0--0--0--0--0--0--------------------3--3--3--3--3--3--3-|
B|--1--1--1--1--1--1--1--1--1--1--1--1--3--3--3--3--3--3--3-|
G|--2--1--1--1--1--1----------------------------------------|
D|--3--3--3--3--3--3--2--2--2--2--2--2----------------------|
A|--3--3--3--3--3--3--3--3--3--3--3--3--2--2--2--2--2--2--2-|
E|--1--1--1--1--1--1--------------------3--3--3--3--3--3--3-|

         Fm                  C                           G

E|--0--0--0--0--0--0--------------------3--3--3--3--3--3--3--3--3--3--3--3-----|
B|--1--1--1--1--1--1--1--1--1--1--1--1--3--3--3--3--3--3--3--3--3--3--3--3-----|
G|--2--1--1--1--1--1-----------------------------------------------------------|
D|--3--3--3--3--3--3--2--2--2--2--2--2-----------------------------------------|
A|--3--3--3--3--3--3--3--3--3--3--3--3--2--2--2--2--2--2--2--2--2--2--2--2-----|
E|--1--1--1--1--1--1--------------------3--3--3--3--3--3--3--3--3--3--3--3-----|    x2

   Am  C         G
    D  D  D  D  D  D  D  D   (strum pattern)

E|--------3--------------3-|
B|--1--1--3--------------3-|
G|--2--------------------0-|
D|--2--2-----0--0--0--0--0-|
A|-----3--2--2--2--2--2--2-|
E|--------3----------------|

          \   Played in
               G chord   /

   Am  C               G

E|--------3--3-----------------------|
B|--1--1--3--3--------3--------3-----|
G|--2--------0-----------0--0-----0--|
D|--2--2-----0--0--0-----------------|
A|-----3--2--2-----------------------|
E|--------3--------------------------|

          \  Played in the G chord  /

   Am        C from 3rd               C

E|----------------------------------------------|
B|--1--3--3--3--3--3--3--3--3--1--1--1--1--1--1-|
G|--2-----0--0--0--0--0--0--0--0--0--0--0--0--0-|
D|--2--4--4--4--4--4--4--4--4--2--2--2--2--2--2-|
A|-----5--5--5--------5--------3--3--3--3--3--3-|
E|----------------------------------------------|

      \C chord from 3rd fret/ \C from 1st fret/
                                  normal C


                          PLAY ALL ABOVE TWICE

          Fm                  C                         G

E|--0--0--0--0--0--0--------------------3--3--3--3--3--3--3--3--3--3--3--3-----|
B|--1--1--1--1--1--1--1--1--1--1--1--1--3--3--3--3--3--3--3--3--3--3--3--3-----|
G|--2--1--1--1--1--1-----------------------------------------------------------|
D|--3--3--3--3--3--3--2--2--2--2--2--2-----------------------------------------|
A|--3--3--3--3--3--3--3--3--3--3--3--3--2--2--2--2--2--2--2--2--2--2--2--2-----|
E|--1--1--1--1--1--1--------------------3--3--3--3--3--3--3--3--3--3--3--3-----|    x2

         Fm                   C                  G

E|--0--0--0--0--0--0--------------------3--3--3--3--3--3--3-|
B|--1--1--1--1--1--1--1--1--1--1--1--1--3--3--3--3--3--3--3-|
G|--2--1--1--1--1--1----------------------------------------|
D|--3--3--3--3--3--3--2--2--2--2--2--2----------------------|
A|--3--3--3--3--3--3--3--3--3--3--3--3--2--2--2--2--2--2--2-|
E|--1--1--1--1--1--1--------------------3--3--3--3--3--3--3-|

         Fm                   C                         G

E|--0--0--0--0--0--0--------------------3--3--3--3--3--3--3--3--3--3--3--3-----|
B|--1--1--1--1--1--1--1--1--1--1--1--1--3--3--3--3--3--3--3--3--3--3--3--3-----|
G|--2--1--1--1--1--1-----------------------------------------------------------|
D|--3--3--3--3--3--3--2--2--2--2--2--2-----------------------------------------|
A|--3--3--3--3--3--3--3--3--3--3--3--3--2--2--2--2--2--2--2--2--2--2--2--2-----|
E|--1--1--1--1--1--1--------------------3--3--3--3--3--3--3--3--3--3--3--3-----|    x2

          Fm                 C                  G

E|--0--0--0--0--0--0--------------------3--3--3--3--3--3--3-|
B|--1--1--1--1--1--1--1--1--1--1--1--1--3--3--3--3--3--3--3-|
G|--2--1--1--1--1--1----------------------------------------|
D|--3--3--3--3--3--3--2--2--2--2--2--2----------------------|
A|--3--3--3--3--3--3--3--3--3--3--3--3--2--2--2--2--2--2--2-|
E|--1--1--1--1--1--1--------------------3--3--3--3--3--3--3-|

E|--------------------------------------------------------------------------------|
B|--------------------------------------------------------------------------------|
G|--------------------------------------------------------------------------------|
D|--------------------------------------------------------------------------------|
A|--3--3--3--3*>--3*>--10--10--10--10--10*<--10*<--3--3--3--3--3*--3*--3--3--3--3-|
E|--1--1--1--1*>--1*>--8---8---8---8---8*<---8*<---5--5--5--5--5*--5*--5--5--5--5-|
             \Sec 1/                   \ Sec 1 /              \Sec 2/

                    PLAY THIS SECTION EIGHT TIMES into Solo


Sec 1 = Slightly lift fingers from strings to play muted while sliding down to
       the next chord. Sounds like a very dull slide. (Ignor if too hard)

Sec 2 = slightly lift fingers from strings to play muted, this is a quickstrum
       a kind of pause rather than playing 3 eight times in a row
                                           5


SOLO!!!!

E|-------------------------------------12h13--13--12--13--13--13-|
B|--12h13--13--12--13--13--13--15--------------------------------|
G|---------------------------------12----------------------------|
D|---------------------------------------------------------------|
A|---------------------------------------------------------------|
E|---------------------------------------------------------------|
                                  (*)


E|----------------|
B|--12h13--13h15--|
G|----------------|
D|----------------|
A|----------------|
E|----------------|   Play solo through 3 times, on the 4th time stop at the (*)
                                  and continue with whats Below.

    Am       C from 3rd               C

E|----------------------------------------------|
B|--1--3--3--3--3--3--3--3--3--1--1--1--1--1--1-|
G|--2-----0--0--0--0--0--0--0--0--0--0--0--0--0-|
D|--2--4--4--4--4--4--4--4--4--2--2--2--2--2--2-|
A|-----5--5--5--------5--------3--3--3--3--3--3-|
E|----------------------------------------------|

      \C chord from 3rd fret/ \C from 1st fret/
                                  normal C

         Fm                  C                          G

E|--0--0--0--0--0--0--------------------3--3--3--3--3--3--3--3--3--3--3--3-----|
B|--1--1--1--1--1--1--1--1--1--1--1--1--3--3--3--3--3--3--3--3--3--3--3--3-----|
G|--2--1--1--1--1--1-----------------------------------------------------------|
D|--3--3--3--3--3--3--2--2--2--2--2--2-----------------------------------------|
A|--3--3--3--3--3--3--3--3--3--3--3--3--2--2--2--2--2--2--2--2--2--2--2--2-----|
E|--1--1--1--1--1--1--------------------3--3--3--3--3--3--3--3--3--3--3--3-----|    x2

         Fm                  C                   G

E|--0--0--0--0--0--0--------------------3--3--3--3--3--3--3-|
B|--1--1--1--1--1--1--1--1--1--1--1--1--3--3--3--3--3--3--3-|
G|--2--1--1--1--1--1----------------------------------------|
D|--3--3--3--3--3--3--2--2--2--2--2--2----------------------|
A|--3--3--3--3--3--3--3--3--3--3--3--3--2--2--2--2--2--2--2-|
E|--1--1--1--1--1--1--------------------3--3--3--3--3--3--3-|

          Fm                 C                          G

E|--0--0--0--0--0--0--------------------3--3--3--3--3--3--3--3--3--3--3--3-|
B|--1--1--1--1--1--1--1--1--1--1--1--1--3--3--3--3--3--3--3--3--3--3--3--3-|
G|--2--1--1--1--1--1-------------------------------------------------------|
D|--3--3--3--3--3--3--2--2--2--2--2--2-------------------------------------|
A|--3--3--3--3--3--3--3--3--3--3--3--3--2--2--2--2--2--2--2--2--2--2--2--2-|
E|--1--1--1--1--1--1-------------------------------------------------------|
Tap to rate this tab
# A B C D E F G H I J K L M N O P Q R S T U V W X Y Z