Song name
# A B C D E F G H I J K L M N O P Q R S T U V W X Y Z

Third Eye Blind - Crystal Baller tab

 Hello There people! when I was trying to learn Crystal Baller i found
many tabs that were not accurate for the solo. I then learned the solo
by ear and i think it sounds good so here it is! Rate And comment!

e----------------------------------------------------------|             Key
B---------12~--------------------------------  x2----------|      ~= Hold it
G--14--12-----12--9--12~-9---------------------------------|          b= Bend it
D--------------------------12--10--9--10-------------------|          r= Release it
A----------------------------------------------------------|          /= Slide Up
E----------------------------------------------------------|          \= Slide Down

e--------------------------------------------|
B---------13~--------------------------------|
G--14--12-----12--9--12~-9-------------------|
D--------------------------12--10--9-10------|
A--------------------------------------------|
E--------------------------------------------|

e------------------------------------------------------|
B---------12b13r12-------------------------------------|
G--14--12----------12--9--12~-9------------------------|
D-------------------------------12--10--9--10/12~\3/7~-|
A------------------------------------------------------|
E------------------------------------------------------|
Tap to rate this tab
# A B C D E F G H I J K L M N O P Q R S T U V W X Y Z