Third Eye Blind - Losing A Whole Year tab

Standard Tuning

intro
e-------------------------------------------------------------------------|
b---------4h5p4h5-5-----------2h5p2------------------7----------------7---|
g-------6-----------6-------1-------4-1/8----8-8h9-8---8----8---8h9-8---8-|
d-----7-------------------2----------------9--------------9---9-----------|
a---7-------------------2-------------------------------------------------|
e-5-------------------0---------------------------------------------------|

Chorus
e-------------------------------------------------------------------|
b-------------------------------------------------------------------|
g-6-6-6-6-6-6-6-6--1-1-1-1-1-1-1-1--8-8-8-8-8-8-8-8-8-8-8-8-8-8-8-8-|
d-7-7-7-7-7-7-7-7--2-2-2-2-2-2-2-2--9-9-9-9-9-9-9-9-9-9-9-9-9-9-9-9-|
a-7-7-7-7-7-7-7-7--2-2-2-2-2-2-2-2--9-9-9-9-9-9-9-9-9-9-9-9-9-9-9-9-|
e-5-5-5-5-5-5-5-5--0-0-0-0-0-0-0-0--7-7-7-7-7-7-7-7-7-7-7-7-7-7-7-7-|

Verse
(You basically fiddle around with the chorus chords anyway you want to.
Here's how I usually wing it)
e--------------------------------------|
b-----5---5---5-5--------0---0---0-0---|
g-----6---6---6-6--------1---1---1-1---|
d-----7---7---7-7--------2---2---2-2---|
a---7-------7---7-7----2-------2---2-2-|
e-5-----5-------5----0-----0-------0---|

e--------------------------------------|
b-----7---7---7-7--------7---7---7-7---|
g-----8---8---8-8--------8---8---8-8---|
d-----9---9---9-9--------9---9---9-9---|
a---9-------9---9-9----9-------9---9-9-|
e-7-----7-------7----7-----7-------7---|

Breakdown
e------------------------------|
b------------------------------|
g------------------------------| 2x
d-777-666-44-6--777-666-44-6-6-|
a-777-777-44-6--777-777-44-6-6-|
e-555-444-22-4--555-444-22-4-4-|

Solo
e----------------------------------------|
b----------------------------------------|
g-----9--6h7p6---6--------4--1h2p1---1---|
d---7----------7---7----2----------2---2-|
a-7-------------------2------------------|
e----------------------------------------|

e------------------------------------------|
b------------------------------------------|
g-----11--8h9p8---8--------11--8h9p8---8---|
d---9-----------9---9----9-----------9---9-|
a-9--------------------9-------------------|
e------------------------------------------|

That's the whole song.  Know when to play which part.
Tap to rate this tab
 
# A B C D E F G H I J K L M N O P Q R S T U V W X Y Z