Third Eye Blind - God Of Wine tab

-----------------------------------------------------------------------------
God Of Wine - Third Eye Blind
-----------------------------------------------------------------------------

Tabbed by: Mike Arduino
Email: ardyduh1manparty@yahoo.com

Tuning: DADEAD

I've seen a lot of tabs for this song, in multiple tunings,
none of which are really completely accurate, so I thought I would take a
shot at it. I'm tabbing this in the tuning Kevin Cadogan used, DADEAD tuning.
The lyrics are above the parts they correspond to.

Intro:

D--------------------------------------------0------------7-7-0--------|
A---0-0-7-7-0-0---------2-2-0-0------0---0h4--4-0-----0-0-------0-7----|
E-0-----------------0-0------------------------------------------------|   x2
D-7--------------/2----------------4---4-----------/7------------------|
A-7--------------/2-------------/4-----------------/7------------------|
D-7--------------/2-------------/4-----------------/7------------------|


Every thought that I repent,
There's another chip you haven't spent.
And you're cashing them all in.
Where do we begin, to get clean again.
Can we get clean again.

D--------------------------------------------0------------7-7-0-0-|
A---0-0-7-7-0-0---------2-2-0-0------0-----4---4-0-----0-0--------|
E-0-----------------0-0-------------------------------------------|
D-7--------------/2----------------4---4-4----------/7------------|
A-7--------------/2-------------/4------------------/7------------|
D-7--------------/2-------------/4------------------/7------------|

D--------------------------------------------0------------7-7-0-----|
A---0-0-7-7-0-0---------2-2-0-0------0-----4---4-0-----0-0------0-7-|
E-0-----------------0-0---------------------------------------------|
D-7--------------/2----------------4---4-4----------/7--------------|
A-7--------------/2-------------/4------------------/7--------------|
D-7--------------/2-------------/4------------------/7--------------|


I walk home alone with you, in the mood you're born into.
Sometimes you let me in, and I take it on the chin.
I can't get clean again. I wannna know, can we get clean again.

D------------------------------------------0-----------7-7-0-0-|
A---0-0-7-7-0-0--------2-2-0-0-----0-----4---4-0----0-0--------|
E-0----------------0-0-----------------------------------------| x2
D-7--------------2---------------4---4-4----------7------------|
A-7--------------2-------------4------------------7------------|
D-7--------------2-------------4------------------7------------|


The God of Wine comes crashing through the headlights of a car that
Took you farther than you thought you'd ever want to go.
We can't get back again.
You can't get back again.
She takes a drink and then she waits,
The alcohol it permeates.
And soon the cells give way, and cancels out the day.

D------------------------------------------0-----------7-7-0----|
A---0-0-7-7-0-0--------2-2-0-0-----0---0h4--4-0---0-0-------0-7-|
E-0----------------0-0------------------------------------------|
D-7--------------2---------------4---4-----------7--------------|
A-7--------------2-------------4-----------------7--------------|
D-7--------------2-------------4-----------------7--------------|

D------------------------------------------0-----------7-7-0-0--|
A---0-0-7-7-0-0--------2-2-0-0-----0---0h4--4-0---0-0-----------|
E-0----------------0-0------------------------------------------| x2
D-7--------------2---------------4---4-----------7--------------|
A-7--------------2-------------4-----------------7--------------|
D-7--------------2-------------4-----------------7--------------|


Distortion kicks in:

D---------------------------------------------------------------------------------|
A-7-7-7-7-7-7-7br0--/--2-2-2-2-2-2-2br0--/--4-4-4-4-4-4-4br0--/--7-7-7-7-7-7-7br0-|
E-x-x-x-x-x-x-x--------x-x-x-x-x-x-x--------x-x-x-x-x-x-x--------x-x-x-x-x-x-x----| x2
D-7-7-7-7-7-7-7-----/--2-2-2-2-2-2-2-----/--4-4-4-4-4-4-4-----/--7-7-7-7-7-7-7----|
A-x-x-x-x-x-x-x--------x-x-x-x-x-x-x--------x-x-x-x-x-x-x--------x-x-x-x-x-x-x----|
D-7-7-7-7-7-7-7-----/--2-2-2-2-2-2-2-----/--4-4-4-4-4-4-4-----/--7-7-7-7-7-7-7----|


I can't keep it all together.
I know, I know, I know, I know, I know, I know, I know,
I can't keep it all together.

D---------------------------------------------------------------|
A---------------------------------------------------------------|
E-------------------------------9---9--------9----9-9-9-9-------| x2
D-12--------------------7-7-7-x-7-x-7--7-7-x-7----7-7-7-7-------|
A-12-(14 times or so)---7-7-7-x-7-x-7--7-7-x-7----7-7-7-7-------|
D-12--------------------7-7-7-x-7-x-7--7-7-x-7----7-7-7-7-------|


And the siren's song that is your madness,
Holds a truth I can't erase, All the love on your face.

D------------------------------------------------------------------|
A------------------------------------------------------------------|
E------------------------------------------------------------------|
D-2-2-2-2-2-2-2-2-2-2-2-2-2-2-2-/4-4-4-4-4-4-4-4-4--0-----7--------|
A-2-2-2-2-2-2-2-2-2-2-2-2-2-2-2-/4-4-4-4-4-4-4-4-4--0-----7--------|(hold)
D-2-2-2-2-2-2-2-2-2-2-2-2-2-2-2-/4-4-4-4-4-4-4-4-4--0-----7--------|


Every glamorous sunrise, throws the planets out of line.
A star sign out of whack, a fraudulent zodiac.
And the God of Wine is crouched down in my room. You let me down, I said it.
Now I'm going down, and you're not even around.

D------------------------------------------0-----------7-7-0-0-|
A---0-0-7-7-0-0--------2-2-0-0-----0-----4---4-0----0-0--------|
E-0----------------0-0-----------------------------------------| x2
D-7--------------2---------------4---4-4----------7------------|
A-7--------------2-------------4------------------7------------|
D-7--------------2-------------4------------------7------------|


And I said a no, no, no, no, no, no, no, no, no, no, no, no, no, no

D---------------------------------------------------------------------------------|
A-7-7-7-7-7-7-7br0--/--2-2-2-2-2-2-2br0--/--4-4-4-4-4-4-4br0--/--7-7-7-7-7-7-7br0-|
E-x-x-x-x-x-x-x--------x-x-x-x-x-x-x--------x-x-x-x-x-x-x--------x-x-x-x-x-x-x----|
D-7-7-7-7-7-7-7-----/--2-2-2-2-2-2-2-----/--4-4-4-4-4-4-4-----/--7-7-7-7-7-7-7----|
A-x-x-x-x-x-x-x--------x-x-x-x-x-x-x--------x-x-x-x-x-x-x--------x-x-x-x-x-x-x----|
D-7-7-7-7-7-7-7-----/--2-2-2-2-2-2-2-----/--4-4-4-4-4-4-4-----/--7-7-7-7-7-7-7----|


I can't keep it all together.
I know, I know, I know, I know, I know, I know, I know,
I can't keep it all together

D---------------------------------------------------------------|
A---------------------------------------------------------------|
E-------------------------------9---9--------9----9-9-9-9-------|
D-12--------------------7-7-7-x-7-x-7--7-7-x-7----7-7-7-7-------|
A-12-(14 times or so)---7-7-7-x-7-x-7--7-7-x-7----7-7-7-7-------|
D-12--------------------7-7-7-x-7-x-7--7-7-x-7----7-7-7-7-------|


And there's a memory of a window, looking through I see you.
Searching for something I could never give you.

D--------------------------------------------------|
A--------------------------------------------------|
E--------------------------------------------------|
D-2-2-2-2-2-2-2-2-2-2-2-2-2-2-2-/4-4-4-4-4-4-4-4-4-|
A-2-2-2-2-2-2-2-2-2-2-2-2-2-2-2-/4-4-4-4-4-4-4-4-4-|
D-2-2-2-2-2-2-2-2-2-2-2-2-2-2-2-/4-4-4-4-4-4-4-4-4-|


There's someone who understands you more than I do.
A sadness I can't erase, all the love on your face.

D------------------------------------------------------------------|
A------------------------------------------------------------------|
E------------------------------------------------------------------|
D-2-2-2-2-2-2-2-2-2-2-2-2-2-2-2-/4-4-4-4-4-4-4-4-4--0-----7--------|
A-2-2-2-2-2-2-2-2-2-2-2-2-2-2-2-/4-4-4-4-4-4-4-4-4--0-----7--------|(hold)
D-2-2-2-2-2-2-2-2-2-2-2-2-2-2-2-/4-4-4-4-4-4-4-4-4--0-----7--------|


Outro:

D----------------------------------|
A-7p0-7p0-7p0-7p0-7p0-7p0-7p0-7p0--|
E----------------------------------|
D----------------------------------|
A----------------------------------|
D----------------------------------|
Tap to rate this tab
 
# A B C D E F G H I J K L M N O P Q R S T U V W X Y Z