Guitaretab - guitar tabs
Song name
# A B C D E F G H I J K L M N O P Q R S T U V W X Y Z

Third Eye Blind - Never Let You Go tab

intro: guitar 1
/e------------------------------------------------>|\
|B-5------5-------5------5-------5------5--------->|
|G-4-4-22-4-4-222-4-4-22-4-4-222-4-4-22-4-4-222--->|
|D-2-4-22-2-4-222-2-4-22-2-4-222-2-4-22-2-4-222--->|
|A---2-00---2-000---2-00---2-000---2-00---2-000--->|
|E------------------------------------------------>|
|                                                |
|intro: guitar 2                                 |
|e------------------0-------0-------0-------0----->|
|B--------------7h8*-22/7h8*-20/7h8*-22/7h8*-20--->|
|G------------------------------------------------>|
|D------------------------------------------------>|
|A------------------------------------------------>|
\E------------------------------------------------>|/

verse 1: guitar 1                  repeat\/    /after you repeat\
e---------------------------------------------->---------------->
B-5------5-------5------5-------5------5------->-5------5------->
G-4-4-22-4-4-222-4-4-22-4-4-222-4-4-22-4-4-222->-4-4-22-4-4-222->
D-2-4-22-2-4-222-2-4-22-2-4-222-2-4-22-2-4-222->-2-4-22-2-4-222->
A---2-00---2-000---2-00---2-000---2-00---2-000->---2-00---2-000->
E---------------------------------------------->---------------->
There's every good reason For letting you go She's sneaky and smoked out And it's 
to show I never let you go I never let you go I never let you go I never let you...

chorus: guitar 1
e------5-5----------5-5----------5-5----->
B-5----5-5-55--5----5-5-44--5----5-5-55-->
G-4-44-2-2-444-4-44-2-2-444-4-44-2-2-444->
D-2-44-2-2-224-2-44-2-2-224-2-44-2-2-224->
A---22-0-0---2---22-0-0---2---22-0-0---2->
E---------------------------------------->
Turn around your back on each other That's a good idea Break a promise to your mother 
around your back on each other


fill: repeat intro where guitar 2 comes in


verse 2: guitar 1                  repeat\/    /after you repeat\
e---------------------------------------------->---------------->
B-5------5-------5------5-------5------5------->-5------5------->
G-4-4-22-4-4-222-4-4-22-4-4-222-4-4-22-4-4-222->-4-4-22-4-4-222->
D-2-4-22-2-4-222-2-4-22-2-4-222-2-4-22-2-4-222->-2-4-22-2-4-222->
A---2-00---2-000---2-00---2-000---2-00---2-000->---2-00---2-000->
E---------------------------------------------->---------------->
You said that I changed Well maybe I did But even if I changed What's wrong with it? I 
let you go I never let you go I never let you go I never let you...


REPEAT CHORUS AND THEN HALF OF FILL


bridge: guitar 2
/e-------------------------------------------------4--------------------->|\
|B-----------------------------------77777777777777-7-------------------->|
|G----------------------------------------------------------------------->|
|D----------------------------------------------------------------------->|
|A----------------------------------------------------------------------->|
|E----------------------------------------------------------------------->|
|                                                                       |
|bridge: guitar 1                                                       |
|e----------------------------------------------------------------------->|
|B-5555555555555----5555555555555----5555555555555----5555555555555------>|
|G-4444444444444222-4444444444444222-4444444444444222-4444444444444222--->|
|D-2221112--2---222-2221112--2---222-2221112--2---222-2221112--2---222--->|
|A--------22-000000--------22-000000--------22-000000--------22-000000--->|
\E----------------------------------------------------------------------->|/
And all our friends are gone, are gone And all the time moves on and on And all I know 
it's wrong, it's wrong And all I know is it's wrong, it's wrong
[ Tab from: http://www.guitaretab.com/t/third-eye-blind/23894.html ]
bridge: guitar 2
/e---------------4-------------------------------------------------------->|\
|B-77777777777777-7------------------------------------------------------->|
|G------------------------------------------------------------------------>|
|D------------------------------------------------------------------------>|
|A------------------------------------------------------------------------>|
|E------------------------------------------------------------------------>|
|                                                                        |
|bridge: guitar 1                                                        |
|e------------------------------------------------------------------------>|
|B-5555555555555----5555555555555----5------5------5------5------5-------->|
|G-4444444444444222-4444444444444222-4-4-22-4-4-22-4-4-22-4-4-22-4-4-22--->|
|D-2221112--2---222-2221112--2---222-2-4-22-2-4-22-2-4-22-2-4-22-2-4-22--->|
|A--------22-000000--------22-000000---2-00---2-00---2-00---2-00---2-00--->|
\E------------------------------------------------------------------------>|/
If there's a reason It's lost on me Maybe we'll be friends

bridge: guitar 2
/e------------------------0-------0-------0-------0-------0-------0----->|\
|B--------------------7h8*-22/7h8*-20/7h8*-22/7h8*-20/7h8*-22/7h8*-20--->|
|G---------------------------------------------------------------------->|
|D---------------------------------------------------------------------->|
|A---------------------------------------------------------------------->|
|E---------------------------------------------------------------------->|
|                                                                      |
|bridge: guitar 1                                                      |
|e----------------------------------------------------------------->  -->|
|B-5------5------5------5------5------5------5------5------5------->  -->|
|G-4-4-22-4-4-22-4-4-22-4-4-22-4-4-22-4-4-22-4-4-22-4-4-22-4-4-22------->|   /
|D-2-4-22-2-4-22-2-4-22-2-4-22-2-4-22-2-4-22-2-4-22-2-4-22-2-4-22------->|  /
|A---2-00---2-00---2-00---2-00---2-00---2-00---2-00---2-00---2-00------->| /
\E---------------------------------------------------------------------->|/
I guess we’ll see I never let you go I never let you go I never let you go I never let you go

bridge: guitar 2 (r= 12th fret) repeat this \/ (guitar 1 play chorus 2nd
                                                time through)
e----r---r---r-------r---r---r-------r---r---r-------r---r---r---->
B---r---r---r---r---r---r---r---r---r---r---r---r---r---r---r---r->
G----------9---9-----------9---9-----------9---9-----------9---9-->
D--9---9--7---7----9---9--7---7----9---9--7---7----9---9--7---7--->
A-7---9-----------7---9-----------7---9-----------7---9----------->
E----------------------------------------------------------------->
Turn around your back on each other That's a good idea Break a promise to your mother 
around Let's turn on each other Good idea, break a promise to your mother Turn around
your on each other That's a good idea Break a promise to your mother Turn around your
back on each other What a good idea

fill: guitar 1
/e----------------------------------->|\
|B-5------5-------5------5----------->|
|G-4-4-22-4-4-222-4-4-22-4-4-222----->|
|D-2-4-22-2-4-222-2-4-22-2-4-222----->|
|A---2-00---2-000---2-00---2-000----->|
|E----------------------------------->|
|                                   |
|fill: guitar 2                     |
|e-----0-------0-------0-------0----->|
|B-7h8*-22/7h8*-20/7h8*-22/7h8*-20--->|
|G----------------------------------->|
|D----------------------------------->|
|A----------------------------------->|
\E----------------------------------->|/

outro-bridge: guitar 2
e--------------------------------------------------------------------->
B-5------5-------5------5-------5------5-------5------5-------5------->
G-4-4-22-4-4-222-4-4-22-4-4-222-4-4-22-4-4-222-4-4-22-4-4-222-4-4-22-->
D-2-4-22-2-4-222-2-4-22-2-4-222-2-4-22-2-4-222-2-4-22-2-4-222-2-4-22-->
A---2-00---2-000---2-00---2-000---2-00---2-000---2-00---2-000---2-00-->
E--------------------------------------------------------------------->
I remember the stupid things The mood rings, the bracelets and the beads The nickels and 
yours and mine Did you cash in all your dreams? You don't dream for me, no You don't 
for me, no But I still feel you pulsing like sonar From the days in the waves That girl
is like a sunburn

outro-bridge: guitar 2 (it fades out)
e--------------------------------------->
B-5-------5------5-------5------5------->
G-4-4-222-4-4-22-4-4-222-4-4-22-4-4-222->
D-2-4-222-2-4-22-2-4-222-2-4-22-2-4-222->
A---2-000---2-00---2-000---2-00---2-000->
E--------------------------------------->
I would like to save That girl is like a sunburn I would like to save She's like a
sunburnShe's like a sunburn
Related for Never Let You Go tab
Never Let You Go chords by Third Eye Blind