Song name
# A B C D E F G H I J K L M N O P Q R S T U V W X Y Z

Third Eye Blind - New Girl tab

-------------------------------------------------------------------------------
			     NEW GIRL - Third Eye Blind
-------------------------------------------------------------------------------
Tabbed by:Sugar-Ray-tabs
Email:drums-barker@hotmail.fr

Tuning:standard

intro: guitar 1
e|-3-3-3-3-3-3-3-3-3-3---3-3-3-3-3-3-3-3-3-3-3--------------------------------------------------|
B|-3-3-3-3-3-3-3-3-3-3---3-3-3-3-3-3-3-3-3-3-3--------------------------------------------------|
G|-0-0-0-0-0-0-0-0-0-0---0-0-0-0-0-0-0-0-0-0-0--------------------------------------------------|
D|-0-0-0-0-0-0-0-0-0-0---0-0-0-0-0-0-0-0-0-0-0--------------------------------------------------|
A|-2-2-2-2-2-2-2-2-2-2---3-3-3-3-3-3-3-3-3-3-3---------7-7-7------------------------------------|
E|-3-3-3-3-3-3-3-3-3-3---3-3-3-3-3-3-3-3-3-3-3---------5-5-5------------------------------------|

intro: guitar 2
e|------------------------------------------------------------------------------|
B|----------12----------12 \8---------------------------------------------------|
G|-------12----12------------0--------------------------------------------------|
D|----12---------12------------0---0h2------------------------------------------|
A|-10---------------10----------------------------------------------------------|
E|------------------------------------------------------------------------------|
verse
e|---------------------------------------------------------------------------|
B|---------------------------------------------------------------------------|
G|---------------------------------------------------------------------------|
D|---------------5--5-5-5-5-5-5-5-------------------5-5-5-5-5-5-5-5----------|
A|-5-5-5-5-5-5-7-3--3-3-3-3-3-3-3-7-5-5-5-5-5-5-5-7-3-3-3-3-3-3-3-3----------|
E|-3-3-3-3-3-3-5------------------5-3-3-3-3-3-3-3-5--------------------------|

e|-3-3-3-3-3-3-3-3-3-3-3-3-3--|
B|-3-3-3-3-3-3-3-3-3-3-3-3-3--|
G|-2-2-2-2-2-2-2-2-0-0-0-0-0--|
D|-0-0-0-0-0-0-0-0-2-2-2-2-2--|
A|-----------------3-3-3-3-3--|
E|----------------------------|

chorus: guitar 1
e|--3--3-3-3-----------------------------------------------------------------------|
B|--3--3-3-3-----------------------------------------------------------------------|
G|--0--0-0-2-----------------------------------------------------------------------|
D|--0--0-0-0-----------------------------------------------------------------------|
A|--x--2-3-------------------------------------------------------------------------|
E|--3------------------------------------------------------------------------------|

chorus: guitar 2
e|-7---7---7---7--------7h8p7---7--------------------------------------------------------|
B|---8---8---8---8----8-------8----------------------------------------------------------|
G|-----------------9---------------------------------------------------------------------|
D|---------------------------------------------------------------------------------------|
A|---------------------------------------------------------------------------------------|
E|---------------------------------------------------------------------------------------|

verse
e|---------------------------------------------------------------------------|
B|---------------------------------------------------------------------------|
G|---------------------------------------------------------------------------|
D|---------------5--5-5-5-5-5-5-5-------------------5-5-5-5-5-5-5-5----------|
A|-5-5-5-5-5-5-7-3--3-3-3-3-3-3-3-7-5-5-5-5-5-5-5-7-3-3-3-3-3-3-3-3----------|
E|-3-3-3-3-3-3-5------------------5-3-3-3-3-3-3-3-5--------------------------|

e|-3-3-3-3-3-3-3-3-3-3-3-3-3--|
B|-3-3-3-3-3-3-3-3-3-3-3-3-3--|
G|-2-2-2-2-2-2-2-2-0-0-0-0-0--|
D|-0-0-0-0-0-0-0-0-2-2-2-2-2--|
A|-----------------3-3-3-3-3--|
E|----------------------------|

chorus: guitar 1
e|--3--3-3-3-----------------------------------------------------------------------|
B|--3--3-3-3-----------------------------------------------------------------------|
G|--0--0-0-2-----------------------------------------------------------------------|
D|--0--0-0-0-----------------------------------------------------------------------|
A|--x--2-3-------------------------------------------------------------------------|
E|--3------------------------------------------------------------------------------|

chorus: guitar 2
e|-7---7---7---7--------7h8p7---7--------------------------------------------------------|
B|---8---8---8---8----8-------8----------------------------------------------------------|
G|-----------------9---------------------------------------------------------------------|
D|---------------------------------------------------------------------------------------|
A|---------------------------------------------------------------------------------------|
E|---------------------------------------------------------------------------|-----------|

verse
e|---------------------------------------------------------------------------|
B|---------------------------------------------------------------------------|
G|---------------------------------------------------------------------------|
D|---------------5--5-5-5-5-5-5-5-------------------5-5-5-5-5-5-5-5----------|
A|-5-5-5-5-5-5-7-3--3-3-3-3-3-3-3-7-5-5-5-5-5-5-5-7-3-3-3-3-3-3-3-3----------|
E|-3-3-3-3-3-3-5------------------5-3-3-3-3-3-3-3-5--------------------------|

e|-3-3-3-3-3-3-3-3-3-3-3-3-3--|
B|-3-3-3-3-3-3-3-3-3-3-3-3-3--|
G|-2-2-2-2-2-2-2-2-0-0-0-0-0--| X2
D|-0-0-0-0-0-0-0-0-2-2-2-2-2--|
A|-----------------3-3-3-3-3--|
E|----------------------------|

ending
e|--3--3-3-3-----------------------------------------------------------------------|
B|--3--3-3-3-----------------------------------------------------------------------|
G|--0--0-0-2-----------------------------------------------------------------------|
D|--0--0-0-0-----------------------------------------------------------------------|
A|--x--2-3-------------------------------------------------------------------------|
E|--3------------------------------------------------------------------------------|

e|---------------------------------------------------------------------------------------|
B|---------------------------------------------------------------------------------------|
G|--0-0-0-0-0-0-0-0-9-9pb-9-7-0---0-0-0-0-0-0-0-0-9pb-9-7-0------------------------------|
D|---------------------------------------------------------------------------------------|
A|---------------------------------------------------------------------------------------|
E|---------------------------------------------------------------------------------------|

************************************

| /   slide up
| \   slide down
| h   hammer-on
| p   pull-off
| ~   vibrato
| +   harmonic
| x   Mute note
| b   Bend
| pb  Pre-bend
| br  Bend release
| pbr Pre-bend release
| brb Bend release bend

************************************
Tap to rate this tab
 
# A B C D E F G H I J K L M N O P Q R S T U V W X Y Z