Song name
# A B C D E F G H I J K L M N O P Q R S T U V W X Y Z

Third Eye Blind - Jumper tab

Tabbed by  Ahmed Douglas

microgranum@hotmail.com

Jumper - Third Eye Blind

Listen to the song first to get it right. ---------------> lets rock



$#@ Chours @#$

Chords (used throughout the song)

   Fmaj7  C   G   G5   Cadd9  Dadd4/9  Am
E|---0--|-0-|-3-|-3--|--3---|---0----|-0-||-------------------
B|---1--|-1-|-3-|-3--|--3---|---3----|-1-||-------------------
G|---2--|-0-|-0-|-0--|--0---|---0----|-2-||-------------------
D|---3--|-2-|-0-|-0--|--2---|---4----|-2-||-------------------
A|------|-3-|-2-|-x--|--3---|---5----|-0-||-------------------
E|------|---|-3-|-3--|------|--------|---||--------------------

Chorus (Intro): Played on an acoustic first time, all other times with eletric and acoustic in the background.
   Fmaj7      C                     G 					       Fmaj7
E|-0-----0----0--0--0---0--0--0-------|----3------3------3-------3--3-----3-0-0|
B|-1-----1----1--1--1---1--1--1--1--0-|-3--3--3---3---3--3--3----3--3--3--3-1-1|
G|-2-----2----0--0--0---0--0--0--0--0-|-0--0--0---0---0--0--0----0--0--0--0-2-2|
D|-3-----3----2--2--2---2--2--2--2--0-|-0--0--0---0---0--0--0----0--0--0--0-3--|
A|---------------3------3--3-----3----|-2-----2---2---2-----2----2-----2-------|
E|------------------------------------|-3-----3---3---3-----0h3--3-----3-------|

		      C       Cadd9         G					 Fmaj7
E|-0--0--0---0---0--0--0-------0------------|----3------3-------3----------3--0-
B|-1--1--1---1---1--1--1h3--3--3----3--3--3-|-3--3--3---3----3--3--3----3--3--1-
G|-2--2--2---2---2--0--0----0--0----0--0--0-|-0--0--0---0----0--0--0----0--0--2-
D|-3-----3---3---3--2--2----2--2----2--2--0-|-0--0--0---0----0--0--0----0--0--3-
A|---------------------3----3----------3----|-2-----2---2----2-----2----2-------
E|------------------------------------------|-3-----3---3----3-----0h3--3-------

				C   Cadd9          G   G5
E|-0-|----0--0---0---------0-------0-------------|-----------------------------|
B|-1-|-1--1--3---1---3--1--1h3--3--3-----3--1--0-|----3--3---3----3--3---------|
G|-2-|-2--2--2---2---2--2--0----0--0-----0--0--0-|-0--0--0---0----0--0---------|
D|---|-3--3--3---3---3--3--2----2--2-----2--2--0-|-0--0--0---0----0--0---------|
A|---|---------------------3----3-----------3----|-x-----x---x-------x---------|
E|---|-------------------------------------------|-3-----3---3-------3---------|


This part comes in on the "I would understand___." Played on Electric. This is played only on the first Chorus.

End of Chorus:
   Fmaj7       C Cadd9        G 				    Fmaj7 		 C
E|-----0-----------------------|-----3-------------3-----------|-----0----------
B|--------1----------1-1---1---|-----3--3----------3-3---3-3---|--------1-------
G|-------------------0-0-----0-|-------------0-------0---0-0-0-|----------------
D|-3---------3-0-0h2-----------|---0-------0-----0---------0-0-|-3---------3-0--
A|-----------------------------|-------------------------------|----------------
E|-----------------------------|-3-------------3---------------|----------------
   Cadd9        G
E|-----0----------|-----3-------------3------||---------------------------------
B|-----1-1---1----|-----3-3-----------3------||---------------------------------
G|-------0---0-0--|--------------------------||---------------------------------
D|-0h2------------|---0------------0---------||---------------------------------
A|----------------|------------0h2-----------||---------------------------------
E|----------------|-3------------------------||---------------------------------

Verse:
   Am		 C	      G     *
E|-0-------|-0-------|-3-------|----------------------------------------------||
B|-1-------|-1-------|-3-------|----------------------------------------------||
G|-2-------|-0-------|-0-------|-0-0--0--0--0--0--0--0--0--0--0--0--0--0--0--0||
D|-2-------|-2-------|-0-------|----------------------------------------------||
A|-0-------|-3-------|-2-------|----------------------------------------------||
E|---------|---------|-3-------|----------------------------------------------||
                                */w slight dist. and wah-wah   (play only twice)

   Am	   Dadd4/9			   C
E|-0----|------------0-------------|-------------0------||----------------------
B|-1----|---------3----3-----------|-------1-----1------||----------------------
G|-2----|-----------------0--------|----------0---------||-Go-back-to-Chorus----
D|-2----|------4-------------4-----|----2---------------||----------------------
A|-0----|-3/5-------------------5\-|-3------------------||----------------------
E|------|--------------------------|--------------------||----------------------

--------------------------------------------------------
Fmaj7            C                   G -->

I wish you would step back from that ledge my friend

          Fmaj7            C             G -->

You could cut ties with all the lies that youve been living in

    Fmaj7        C           G         XXX

and if you do not want to see me again 

        Fmaj7      C            Gxxx

I would understa~~~~~~~~~~~~~~nd

        Fmaj7      C            G  XXX

I would understa~~~~~~~~~~~~~~nd



@#$ Verse 1$#@ ----------------------------------------


  AAM                         

The agry boy a bit too insane

C

icing over a secret pain

G

  You now you dont belong

AM

 Your the first to fight Your way to loud


C

Your the birst of light on the buiral shroud

G                          xxx

   I know somethings wrong

            AM                    Dsus2     C

...  Cause everyone I knows got a reason, to say

xxxx

Lets put the past away


after reson  Am	   Dadd4/9			   C
E|-0----|------------0-------------|-------------0------||----------------------
B|-1----|---------3----3-----------|-------1-----1------||----------------------
G|-2----|-----------------0--------|----------0---------||-Go-back-to-Chorus----
D|-2----|------4-------------4-----|----2---------------||----------------------
A|-0----|-3/5-------------------5\-|-3------------------||----------------------
E|------|--------------------------|--------------------||----------------------              to say 
xxxx

Lets put the past away


@#$ Verse 2 $#@ ------------------------------------------------------


 AM

... Well hes on the table and hes gonna code

C

And I do not that that anybody knows What theyre

G

 doing here



         AM

... Your freinds are up too youve been dismised

C

I never thought it would come to this and I 

G                 xxx

I want you to know



        AM                    Dsus2         C    

Everyone has to face down the deamons, maybe today

xxxxx

We can put the past away





@#$ Chours $#@



        Fmaj7      C            G  XXX

I would understa~~~~~~~~~~~~~~nd

((quiet))   X2

        Fmaj7      C            G  XXX

I would understa~~~~~~~~~~~~~~nd



Fmaj7 C G (4X)

=-=-=-=-=-=-=-=-=-=

Can you put the past away

Fmaj7                 C              G

I wish you would step back from that ledge my friend, I would understand (2x)

Fmaj7                 C              G            XXX

I wish you would step back from that ledge my friend, I would understa~~~~~~~~nd

      Fmaj7      C            G  XXX

I would understa~~~~~~~~~~~~~~~nd

        Fmaj7      C            G  XXX

I would understa~~~~~~~~~~~~~~~nd



Fmaj7 C G (2X Sturming each note once)

Guitar Solo:     Bass Arr. for Guitar:
  G5                     F             C		 G
E|----3-3-3--3------3-||-----------------------|------------------------||------
B|----3-3-3--3------3-||-----------------------|------------------------||------
G|----0-0-0--0------0-||-----------------------|------------------------||------
D|----0-0-0--0------0-||--------3---3----------|-5-5-5-5----------------||------
A|----x-x-x--x------x-||---------------3-3-3-3-|---------5---5----------||------
E|----3-3-3--3------3-||--1-1-1----------------|----------------3-3-3-3-||------
 
  Soft
E|------------------------------------|-13--13--12--13-12-----------|-----------
B|-12-12-13--13--12--13-12-13-15------|--------------------12----15-|--12-13-12-
G|----------------------------------0-|-----------------------------|-----------
D|------------------------------------|-----------------------------|-----------
A|------------------------------------|-----------------------------|-----------
E|------------------------------------|-----------------------------|-----------

E|-----------------15-------|-12-13-12-13--12-12-13-12------------|-------------
B|-13--12-13-12-13-15-------|---------------------------12---x-15-|-12-13-12-13-
G|----------------------0-0-|-------------------------------------|-------------
D|--------------------------|-------------------------------------|-------------
A|--------------------------|-------------------------------------|-------------
E|--------------------------|-------------------------------------|-------------

E|---------------------|-12-13-12-13-13-12-12-13-12-------------|---------------
B|--12-13-12-13-15-----|-----------------------------12--x-13/15\13--13-12-13---
G|-------------------0-|----------------------------------------|---------------
D|---------------------|----------------------------------------|---------------
A|---------------------|----------------------------------------|---------------
E|---------------------|----------------------------------------|---------------

								      /w Guitar Two
E|-------------------|---13-12-13-x-x-12-13-12--------------|-------------------
B|-13-12-13-15-------|--------------------------12---x-13/15\13---13--12--13----
G|---------------0-0-|--------------------------------------|-------------------
D|-------------------|--------------------------------------|-------------------
A|-------------------|--------------------------------------|-------------------
E|-------------------|--------------------------------------|-------------------

E|-------------------------------------------|-----12--13--12--13----12--13--12-
B|-13--12--13--12--13--15---15p13p12-----12--|----------------------------------
G|-----------------------------------12------|-12-------------------------------
D|-------------------------------------------|----------------------------------
A|-------------------------------------------|----------------------------------
E|-------------------------------------------|----------------------------------

E|-------------------|---------------------------------------------------------|
B|-12---12--12--13/15\13--13--12--13---13--12--13--12--13--15--15p13p12----12--|
G|-------------------|--------------------------------------------------12-----|
D|-------------------|---------------------------------------------------------|
A|-------------------|---------------------------------------------------------|
E|-------------------|---------------------------------------------------------|

							Loud:
E|---------------------------------------------||-------------------------------
B|---------------------------------------------||-13--12--13----12--13--12--13--
G|-0---0--0--0--0--0--0--0--0--0--0--0--0--0--0||-------------------------------
D|---------------------------------------------||-------------------------------
A|---------------------------------------------||-------------------------------
E|---------------------------------------------||-------------------------------

E|--------------||-----13------13-------13--12-------------------|--------------
B|-15vvv--------||-------------------------------12----12--13b(15)r13--13--12---
G|---------0--0-||-0-------12-------12---------------------------|--------------
D|--------------||-----------------------------------------------|--------------
A|--------------||-----------------------------------------------|--------------
E|--------------||-----------------------------------------------|--------------

				Play 3x
E|-----------------------------------||-------------------------------------19\|
B|-13----12--13--12--13--15vvv-------||----------------------------------------|
G|------------------------------0--0-||-0--0--0--0--0--0--0--0--0--0--0--0-----|
D|-----------------------------------||----------------------------------------|
A|-----------------------------------||----------------------------------------|
E|-----------------------------------||----------------------------------------|

E|---------------0----------------|---------0---------0--------||---------------
B|----------3-------3-------------|---------1---------1--------||---------------
G|----------------------0---------|-------------0--------------||---------------
D|------4-------------------4-----|-----2----------------------||---------------
A|-/5---------------------------5\|-3--------------------------||---------------
E|--------------------------------|----------------------------||---------------

Guitar Two (Played during parts of the solo) Ending Chorus:
  Fmaj7	 C				  G5					Fmaj7
E|-0------0-------0--------0-----0--------|------------------------------------|
B|-1------1----1--1--1--1--1-----1--------|----------3----------3-----3-----0-1|
G|-2------2----0--0--0--0--0-----0---0--0-|-0--------0----0--0--0--0--0--0--0-2|
D|-3------3----2--2--2--2--2-----2---5--5-|-0--------0----0--0--0--0--0--0--0-3|
A|----------------3-----3-----------------|-x--------x----x--x-----x-----x-----|
E|----------------------------------------|-3--------3----3--3-----0-----3-----|

E|-0------0-------0--0-----0-----0--------|-----------------------------------||
B|-1--1---1----1--1--1--1--1-----1---0--0-|-3--------3----------3--------3----||
G|-2--2---2----0--0--0--0--0-----0---5--5-|-0--------0----------0--------0----||
D|-3--3---3----2--2--2--2--2-----2--------|-0--------0----------0--------0----||
A|----------------3-----3-----------------|-x--------x----------x--------x----||
E|----------------------------------------|-3--------3----------3--------3----||

3rd, 4th, and 5th time of Ending Chorus:
   Fmaj7            C   Cadd9             G
E|-0--0--0---0---0--0--0-------0------------|------------3----3---3------||-----
B|-1--1--1---1---1--1--1h3--3--3----3--3--3-|-3--3--3----3----3---3------||-----
G|-2--2--2---2---2--0--0----0--0----0--0--0-|-0--0--0----0----0---0------||-----
D|-3-----3---3---3--2--2----2--2----2--2--0-|-0--0--0----0----0---0------||-----
A|---------------------3----3----------3----|-2--2--2----2----2---2------||-----
E|------------------------------------------|-3--3--3----3----3---3------||-----

Outro:
   Fmaj7  C	     G		Fmaj7  C	   G               Fmaj7      C
E|-0------0------|-3------|-0------0------|--------3-------|-------------------|
B|-1------1------|-3------|-1------1------|-0---------3--0-|-1---1-----1-------|
G|-2------0------|-0------|-2------0------|-0--------------|-2---------0-------|
D|-3------2------|-0------|-3------2------|-0--------------|-3------0--2-------|
A|--------3------|-2------|--------3------|-2--------------|-----------3-------|
E|---------------|-3------|---------------|-3--------------|-------------------|

   G		 *Fmaj7       C	     G
E|------------|----------------------|-----------|---------------|------------||
B|-0----------|----------1-----------|-----------|---------------|------------||
G|-0--------0-|------2------0--------|-0---------|---------------|------------||
D|-0----------|-3-----------2--------|-0---------|---------------|------------||
A|-2----------|-------------3--------|-2---------|---------------|------------||
E|-3----------|----------------------|-3---------|---------------|------------||
		  */w heavy reverb


@#$ Notation Guide $#@

h = hammer on
p = pull off
/ = slide up
\ = slide down
b = bend
r = release bend
()= indicates note to bend to
v = vibrato
x = mute string with fret hand
Tap to rate this tab
# A B C D E F G H I J K L M N O P Q R S T U V W X Y Z