Song name
# A B C D E F G H I J K L M N O P Q R S T U V W X Y Z

Third Eye Blind - Cant Get Away tab

Since I've never seen any version of this song on tab sites I'm putting here a simple 
version of this song,meant to be played with only one guitar.Anyway,it sounds ok to me.

Capo on the 2nd
standart tuning
all chords relative to the capo

Intro:
E------------------------------------------------------|
B------------------------------------------------------|
G------------------------------------------------------|
D-9--9--11--x-----x---x---x---x---x------x--x--x--x----|
A-0--0--0---11----11--11--9 h 11 -9------9--9--9--9----|
E-----------0-----0---0---9-------9------7--7--7--7----|

Papapapa's, Verses and Chorus:
E----0----0----0----0----|
B----0----0----0----0----|
G----2----1----6----4----|
D----2----2----6----4----|
A----0----2----4----2----|
E----x----0----x----x----|

Bridge (release me...)
E----0--------0----|
B----0--------0----|
G----2--------1----|
D----2--------2----|
A----0--------2----|
E----x--------0----|
Tap to rate this tab
 
# A B C D E F G H I J K L M N O P Q R S T U V W X Y Z