Song name
# A B C D E F G H I J K L M N O P Q R S T U V W X Y Z

Third Eye Blind - Blinded tab

Song: Blinded(When I See You)
Artist: Third Eye Blind
Album: Out Of The Vein
Tabbed by: Dean Monistere (deanmono@hotmail.com)

Tuning:FACFAE - Okay I Know its in FACFAE for a fact because Tony Ferdenilli(sp?)
told me himself... 

Intro/Verse
Stephan:
E|--13-13-13-13-13-13-13-13-13-13-13-13-13-13-13-13-13-13-
A|--13-13-13-13-13-13-13-13-13-13-13-13-13-13-13-13-13-13-
F|---0--0--0--0--0--0--0--0--0--0--0--0--0--0--0--0--0--0-
C|--12-12-12-12-12-12-12-12-12-12-12-12-12-12-12-12-12-12-
A|--13-13-13-13-13-13-13-13-12-12-12-12-12-12-12-12-12-12-
F|--------------------------------------------------------

Tony:
-13-13-13-13-13-13-13-13-13-13-13-13-13-13-13-13-13-13-
-13-13-13-13-13-13-13-13-13-13-13-13-13-13-13-13-13-13-
-12-12-12-12-12-12-12-12-12-12-12-12-12-12-12-12-12-12-
-12-12-12-12-12-12-12-12-12-12-12-12-12-12-12-12--0-12-
-13-13-13-13-13-13-13-13-12-12-12-12-12-12-12-12--0-12-
-------------------------------------------------------

Post verse
Tony:
---------------------------------------------
---------------------------------------------
---------------------------------------------
---------------------------------------------
-12--12-12-12-12-12-12--10-10-10-10-10-10-10-
--9---9--9--9--9--9--9---7--7--7--7--7--7--7-

--------------------------------------
--------------------------------------
-5--5-5-5-5-5-5--7---7--7--7--7--7--7-
-5--5-5-5-5-5-5--7---7--7--7--7--7--7-
-8--8-8-8-8-8-8-10--10-10-10-10-10-10-
-5--5-5-5-5-5-5--7---7--7--7--7--7--7-

Pre-Chorus
Tony:
-----------------------------------------
-----------------------------------------
-5-5-5-5-5-5-5-5--7--7--7--7--7--7--7--7-
-5-5-5-5-5-5-5-5--7--7--7--7--7--7--7--7-
-8-8-8-8-8-8-8-8-10-10-10-10-10-10-10-10-
-5-5-5-5-5-5-5-5--7--7--7--7--7--7--7--7-

-----------------------------------------------
-----------------------------------------------
-12-12-12-12-12-12-12-12-12-12-8-8-8-8-8-8-8-8-
-12-12-12-12-12-12-12-12-12-12-8-8-8-8-8-8-8-8-
-15-15-15-15-15-15-15-15-15-15-8-8-8-8-8-8-8-8-
-12-12-12-12-12-12-12-12-12-12-5-5-5-5-5-5-5-5-

Chorus
Tony:
-----------------------------------------
-----------------------------------------
-5-5-5-5-5-5-5-5--7--7--7--7--7--7--7--7-
-5-5-5-5-5-5-5-5--7--7--7--7--7--7--7--7-
-8-8-8-8-8-8-8-8-10-10-10-10-10-10-10-10-
-5-5-5-5-5-5-5-5--7--7--7--7--7--7--7--7-

-----------------------------------------------
-----------------------------------------------
-12-12-12-12-12-12-12-12-12-12-8-8-8-8-8-8-8-8-
-12-12-12-12-12-12-12-12-12-12-8-8-8-8-8-8-8-8-
-15-15-15-15-15-15-15-15-15-15-8-8-8-8-8-8-8-8-
-12-12-12-12-12-12-12-12-12-12-5-5-5-5-5-5-5-5-

--------------------------------------------
--------------------------------------------
-5--5-5--7--7--7--9--9--9--9--7--7--7--7--7-
-5--5-5--7--7--7--9--9--9--9--7--7--7--7--7-
-8--8-8-10-10-10-12-12-12-12-10-10-10-10-10-
-5--5-5--7--7--7--9--9--9--9--7--7--7--7--7-

Solo
Tony:
--------------------------7-7-7--7-7-7-7-
--------------------------7-7-7--7-7-7-7-
--------------------------7-7-7--7-7-7-7-
--------------------------7-7-7--7-7-7-7-
-8-8-8-8-8-8-10-10-10-10--8-9-7--7-7-7-7-
-5-5-5-5-5-5--7--7--7--7--7-7-9--7-7-7-7-
Tap to rate this tab
 
# A B C D E F G H I J K L M N O P Q R S T U V W X Y Z