Guitaretab - guitar tabs
Song name
# A B C D E F G H I J K L M N O P Q R S T U V W X Y Z

Third Eye Blind - Alright Caroline tab

BAND:   Third Eye Blind
SONG:   Alright Caroline
ALBUM:  None (unreleased 1999 demo)

TUNING: Standard
  The chords are all placed correctly with the words sang.
  I believe this tab is 100% correct.


INTRO:
e|--------2--0--------2--0--------2--0-------0-----|
B|-----3-----------3-----------3----------3-----3--|
G|-------------------------------------------------|
D|--0-----------2----------------------------------|
A|--------------------------2----------------------|
E|-------------------------------------------------|

e|-------~2~-0-------~2~-0-------~2~-0-------0-----|
B|-----3-----------3-----------3----------3-----3--| let ring
G|-------------------------------------------------|
D|--0-----------2----------------------------------|
A|--------------------------2----------------------|
E|-------------------------------------------------|


VERSE 1:

D            A                  Em       Em
 Tell the truth for once just this time, knowing we've been through it,
D        A                   Em   Em
 Baby's eyes look just like mine, we've both been through it,
D            A                    Em       Em
 Tell the truth for once just this time,
         G              D                A
I didn't know how much you would take from me.

D                     A            Em   Em
 When you kiss this little girl around, give me back mine,
D         A                 Em         Em
 Didn't know what we made laying down, one more time,
D            A                    Em       Em
 Tell the truth for once just this time,
        G                D                  A
It just seems that things, it could've been different,
A
 I can't change it.


CHORUS:
Em G         D
 Alright Caroline,
  D                       Em
I won't take nothing from you,
   G         D
 Alright Caroline,
D                    Em
Even if it means the truth,
   G ~~~~~~~~~~~
 Alright 

[ Tab from: http://www.guitaretab.com/t/third-eye-blind/35393.html ]
VERSE 2:
D                     A              Em   Em
 When you teach this little girl to walk, another will remind,
D                    A               Em          Em        D
 There's a price to pay for a place safe to hide,   from inside,
     A                     Em        Em
 The truth for once just this time,
   G                  D                  A
 It seems that things, they could've been different,
A
 Both of us, both of us.


CHORUS:
Em G         D
 Alright Caroline,
  D                       Em
I won't take nothing from you,
   G         D
 Alright Caroline,
D                    Em
Even if it means the truth,
   G       G-G/F#-Em
 Alright


BRIDGE: 
Em                      G                         Bm
 Time moves faster today, oh let's not speak of it,
                 A
 Some things you cannot mend,
Em                         G                    Bm
 And I'm watching her sleep, and it's beautiful,
                                A
 Tell me when I won't be seeing you again.


CHORUS:
                 Em                  G   D
 You didn't even ask me, if it was alright
Em   G         D
 Alright Caroline,
D                    Em
Even if it means the truth,
   G         D
 Alright Caroline,
Em   G 
   Alright


BREAK:
Em  G               D    D  
      To understand you,    
Em  G            D   D 
      I feel you,
Em  G                  D         D   
      To claim to understand you,    
Em  G                D   D
      But I feel you


                  Em    G    D      D
It's gonna take a long time,  
          Em          G      D      D
To grow young again, yeah, I know,
                  Em    G    D      D
It's gonna take a long time,  
          Em        G    D      D
To grow young again,   I know,
                  Em       G           D      D
It's gonna take a long, if it was alright,
          Em                 G      D      D 
To grow young again, if itís alright,
Em           G     D      D
  If it was alright, 
Em           G     D      D
  If it was alright.


OUTRO:
e|--------2--0--------2--0--------2--0-------0-----|
B|-----3-----------3-----------3----------3-----3--|
G|-------------------------------------------------|
D|--0-----------2----------------------------------|
A|--------------------------2----------------------|
E|-------------------------------------------------|

e|-------~2~-0--------2--0--------2--0-------------|
B|-----3-----------3-----------3----------3--------| let ring
G|-------------------------------------------------|
D|--0-----------2----------------------------------|
A|--------------------------2----------------------|
E|-------------------------------------------------|


Tabbed by: VINCE SPALLINO
Email: vspalli@bgsu.edu

Related for Alright Caroline tab