Song name
# A B C D E F G H I J K L M N O P Q R S T U V W X Y Z

Third Eye Blind - The Background tab

  Title : The Background
 Artist : Third Eye Blind
  Album : Third Eye Blind


------------------------------------|-----------------------------------------
------------------------------------|-----------------------------------------
------------------------------------|-----------------------------------------
--4--0-----0--4---------------------|--4---2p---------------------------------
---------4--------2-------------2---|---------2p--0h2-2--0h2-2----------------
----------------------3----2/3------|-----------------------------------------
                                                                              

------------------------------------|-----------------------------------------
------------------------------------|-----------------------------------------
------------------------------------|-----------------------------------------
--4--0-----0--4---------------------|--4--5\4--5----0-------------------------
---------4--------2-------------2---|---------------2-------------------------
----------------------3----2/3------|-----------------------------------------
                                                                              

------------------------------------------------------------------------------
------------------------------------------------------------------------------
------------------------------------------------------------------------------
---4----4----4--4---5---5h7--5h7--5h7--5\4------------------------------------
------------------------------------------------------------------------------
-------------------------------------------------------------------------------0h2p0---0------------0h2p0---0-----------------------------------------------
-------3--------------------3-------------------------------------------------
-----------2---------------------0---------------------------------------------
------------------------------------------------------------------------------
------------------------------------------------------------------------------
------------------------------------------------------------------------------Verse - D, G, repeat throughout


Chorus
-------
A                                            Bm       A       D               
The plans I made still have you in them, and you come swimmin into view

               Bm           A                D
The words they use so lightly I only feel for you

                       Bm       A             D 
I only know because I carry you around, in the background
*Solo*
--15-14-15-14-----15-14-14h15p14--------15-14-15-14----15-14-14h15p14---------
--------------15-----------------15/17--------------15------------------------
----------------------------------------------------------------------11\9----
------------------------------------------------------------------------------
------------------------------------------------------------------------------
------------------------------------------------------------------------------
Tap to rate this tab
# A B C D E F G H I J K L M N O P Q R S T U V W X Y Z