Song name
# A B C D E F G H I J K L M N O P Q R S T U V W X Y Z

Third Eye Blind - Never Walk With The Devil Again tab

No official lyrics yet sorry.

Song: Kinsale Harbor/Walk With The Devil
Artist: Third eye blind
Album: demo
Tuning: Standard EADGBE
Tabbed By: STEVEN BRADLEY

Intro Part 1:
---4---4-----------------------------|
-6---6---4--4---------4-------4------|
--6---6---6-----5--5-5-5-5-5-5-5--5--|
-------------6-6-6------6-6------6-6-|
-------------------------------------|
-------------------------------------|

Intro Part 2:
-------------------------------------------------|
-------------------------------------------------|
-6-6---------------------------------------------|
-6-6-6-6-4-4-4-4-x-x-6-6-6-6-4-4-4-6-6-6-6-4-4-4-|
-4-4-6-6-4-4-4-4-x-x-6-6-6-6-4-4-4-6-6-6-6-4-4-4-|
-----4-4-2-2-2-2-x-x-4-4-4-4-2-2-2-4-4-4-4-2-2-2-|

Verse:(quieter)
-------------------------------------------------|
-------------------------------------------------|
-6-6---------------------------------------------|
-6-6-6-6-4-4-4-4-x-x-6-6-6-6-4-4-4-6-6-6-6-4-4-4-|
-4-4-6-6-4-4-4-4-x-x-6-6-6-6-4-4-4-6-6-6-6-4-4-4-|
-----4-4-2-2-2-2-x-x-4-4-4-4-2-2-2-4-4-4-4-2-2-2-|

Chorus:
-------------------------------------------------|
-------------------------------------------------|
-6-6---------------------------------------------|
-6-6-6-6-4-4-4-4-x-x-6-6-6-6-4-4-4-6-6-6-6-4-4-4-|
-4-4-6-6-4-4-4-4-x-x-6-6-6-6-4-4-4-6-6-6-6-4-4-4-|
-----4-4-2-2-2-2-x-x-4-4-4-4-2-2-2-4-4-4-4-2-2-2-|

Verse(x2):
---4---4-----------------------------|
-6---6---4--4---------4-------4------|
--6---6---6-----5--5-5-5-5-5-5-5--5--|
-------------6-6-6------6-6------6-6-|
-------------------------------------|
-------------------------------------|
Tap to rate this tab
# A B C D E F G H I J K L M N O P Q R S T U V W X Y Z