Song name
# A B C D E F G H I J K L M N O P Q R S T U V W X Y Z

Third Eye Blind - Ill Never Let You Go tab

D-------8------------|-------8----------------|
A------10---8-----6-6|------10---8-----6-6-6-6|
E----------10-----8-8|----------10-----8-8-8-8|  (palm mute this)


E------------------|----------------------------|
B--8--10--8--------|8--10--8--------------------|
G------------10--7-|----------10--7--5----------|
D------------------|----------------------------|
A------------------|----------------------------|
E------------------|----------------------------|

Play it with distortion........these are the main riffs....
this is my first tab.....hope it sounds good for u

SD
Tap to rate this tab
# A B C D E F G H I J K L M N O P Q R S T U V W X Y Z