Song name
# A B C D E F G H I J K L M N O P Q R S T U V W X Y Z

Third Eye Blind - Good For You Acoustic tab

Tabbed by: Crystal
Email: BluePersuasionn@aol.com

Tuning: Drop D
/= slide up


e|------5--5--5--5--5--5--5--5--5----5----5--5--5--5--5--5----------|
B|------7--7--7--7--7--7--7--7--7----5----5--5--5--5--5--5----------|
G|------5--5--5--5--5--5--5--5--5----5----7--7/-6--6--5--5----------|
D|------5--5--5--5--5--5--5--5--5----5----5--5--5--5--7--7----------|
A|------5--5--5--5--5--5--5--5--5----5----5--5--5--5--5--5----------|
E|------5--5--5--5--5--5--5--5--5----5----5--5--5--5--5--5----------|
        D  D  D  D  D  D  D  D  U    D    D  D  D  D  D  D


e|------7--7--7--7--7--7--7--7--7----5----5--5--5--5--5--5--5--5--------|
B|------7--7--7--7--7--7--7--7--7----5----5--5--5--5--5--5--5--5--------|
G|------7--7--7--7--7--7--7--7--7----5----7--7/-6--6--5--5--5--5--------|
D|------7--7--7--7--7--7--7--7--7----5----5--5--5--5--7--7--7--7--------|
A|------9--9--9--9--9--9--9--9--9----5----5--5--5--5--5--5--5--5--------|
E|------9--9--9--9--9--9--9--9--9----5----5--5--5--5--5--5--5--5--------|
        D  D  D  D  D  D  D  D  U    D    D  D  D  D  D  D  D  D
Tap to rate this tab
# A B C D E F G H I J K L M N O P Q R S T U V W X Y Z