Guitaretab - guitar tabs
Song name
# A B C D E F G H I J K L M N O P Q R S T U V W X Y Z

Third Eye Blind - Third Eye Blind tab

============================================================================
Third Eye Blind - Third Eye Blind
============================================================================
1. Losing A Whole Year
2. Narcolepsy
3. Semi-Charmed Life
4. Jumper
5. Graduate
6. How's It Going To Be
7. Thanks Alot
8. Burning Man
9. Good For You
10. London
11. I Want You
12. The Background
13. Motorcycle Drive By
14. God of Wine
============================================================================
Label: Elektra Records
Year: 1997
============================================================================
Put Together By Asa Gaston
============================================================================
1. Losing A Whole Year
============================================================================

tuning:  1st string   E
         2nd          G#
         3rd          F#
         4th          C#
         5th          A
         6th          F#
90bpm
opening riff:
e -------0---------0-----------0---------0-----|
B -----h8-8------h3-3--------h7-10-----h7-10---|
G -----7---7\----2---2/9-----9----9----9----9--|
D ----8---------3-----/10--10--------10--------|
A ---7---------2--------------------9----------|
E --7---------2--------------------9-----------|

A/C#        E/G#        Badd4/D#
0           0            0
8           3            10
7           2            9
8           3            10
7           3            9
7           2            9

These are the main chords used thruout the song.

The bridge is played using Aadd2/6 which is like this:
0
3
0
3
0
3     with the E string variating between 3 and 2.

solo:

e ----0----------------------------------------------|
B ------8---------------3---------------10-----------|
G -------7b.5b7-7--------2b.5b2-2-----------9b.5b9---|
D ---8---------8--8h0--3-------3-3h0--10--10------10-|
A ---------------------------------------------------|
E 5/7-----------------2-------------/9---------------|

e --------------------------------------------------|
B -----------10-------------------------------------|
G 9---------------9b.5b9--9-------------------------|
D ---10h0--10---10------10--10\---------------------|
A --------------------------------------------------|
E -------/9-----------------------------------------|

Not to be confused.. 9b.5b9 means to bend the string
half a note up then to return it to the original note.

The outro is played using this note:

0
15
0
15
x
15   with the E string variating between 15 14 and 12.

============================================================================
2. Narcolepsy
============================================================================

First off, the tuning is: F# A D F# A E  (sidenote: this is also the tuning
for Forget Myself)

It also should be known that this is played in all one part.  So it goes like
this for the intro/verse:

|-0---12-0--0--7-7-7-7-7-|-0---17-0--12--7-7-7-7-7-|
|-0---0--12-0--7-7-7-7-7-|-0---0--17-0---7-7-7-7-7-|
|-0---0--0--0--7-7-7-7-7-|-0---0--0--0---7-7-7-7-7-|
|-0-0-------0--7-7-7-7-7-|-0-0-----------7-7-7-7-7-|
|-0-0--------------------|-0-0---------------------|
|-0-0--------------------|-0-0---------------------|

That gets repeated several times.  Let the chords ring and you should be able to
figure out the timing from listening to the recording.

Then comes this part:

|-0-0-0-2-2-0-0-0-0-0-|
|-4-4-4-2-2-0-0-2-0-0-|
|-3-3-3-2-2-3-3-3-3-3-|
|-2-2-2-2-2-4-4-4-4-4-|
|---------------------|
|---------------------|
 "I try to keep awake..."

|-------------------------------------------------|
|-------------------------------------------------|
|-------------------------------------------------|
|-7-7-7-7-7-7-7-7-7-7-7-7-7-7-7-7-0-0-0-0-0-0-0-0-|
|-6-6-6-6-6-6-6-6-6-6-6-6-6-6-6-6/9-9-9-9-9-9-9-9-|
|-5-5-5-5-5-5-5-5-5-5-5-5-5-5-5-5/8-8-8-8-8-8-8-8-|
  "I can feel this narcolepsy slide into another nightmare..."

Then the distortion kicks in and you strum those beginning chords

|-0-0-0-0-0-0-0-0-7-7-7-7-7-7-7-7-|
|-0-0-0-0-0-0-0-0-7-7-7-7-7-7-7-7-|
|-0-0-0-0-0-0-0-0-7-7-7-7-7-7-7-7-|
|-0-0-0-0-0-0-0-0-7-7-7-7-7-7-7-7-|
|-0-0-0-0-0-0-0-0-----------------|
|---------------------------------|

That's the basis of the whole song.  There is a lot that repeats.  The only
thing left I think would be the solo:

(Played only on the high E string, it goes pretty fast)

e|--12/17-17-17-17-17-7-7-9b-7-5/17-17-17-17-17-7-7-9b-7-5/14-14-14-14-14-

e|-12\7-7-9b-7-5/17-17-17-17-17--|

============================================================================
3. Semi-Charmed Life
============================================================================

-G-D-C-

"The sky was gold..."
        "It was rose."
e|--------------------------------------------------------|
B|---12---12-10----13ties13-----13-----13-12-10--12ties---|
G|-12--12-------12-----------12----12---------------------|
D|--------------------------------------------------------|
A|--------------------------------------------------------|
E|--------------------------------------------------------|

	"Smiling in the pictures"
e|-------------------------------------------------------|
B|----12----12--10----------------10-8-----8--8---8h10---|
G|-12----12----------12----9ties9-------9----------------|
D|-------------------------------------------------------|
A|-------------------------------------------------------|
E|-------------------------------------------------------|

   "Stop.    I won't come down..."
e|-------------------------------------------------------------|
B|---12-----12---10-------13ties13------13-----13-12-10-12ties-|
G|-12---12-----------12--------------12-----12-----------------|
D|-------------------------------------------------------------|
A|-------------------------------------------------------------|
E|-------------------------------------------------------------|
"I took the hit that I was given."
e|--------------------------------------------------------------------|
B|----12----12---10----------------10--8---------1h3h1---0---1h0------|
G|-12----12----------12----9ties9----------9------------------------0-|
D|--------------------------------------------------------------------|
A|--------------------------------------------------------------------|
E|--------------------------------------------------------------------|

     D     C                      D                                        1-3time
               4time
e|--2-2--3-3-3-3-3-3-3---|X3  e|--2---2------22-------2|
B|--3-3--3-3-3-3-3-3-3---|    B|--3---3------33-------3|
G|--2-2--0-0-0-0-0-0-0---|    G|--2---2------22-------2|
D|--0-0--0-0-0-0-0-0-0---|    D|--0---0------00-------0|
A|-------3-3--3-3-3-3-3--|    A|------------------------|
E|-----------------------|    E|------------------------|

   g               D         dsus4          Cadd9
e|-3-3-3-3-3-3-----2-2-2-2-2-3-----3-3-3-3-----3-3-3-3---3-3-| x4
B|-3-3-3-3-3-3-----3-3-3-3-3-3-----3-3-3-3-----3-3-3-3---3-3-|
G|-0-0-0-0-0-0-----2-2-2-2-2-2-----0-0-0-0-----0-0-0-0---0-0-|
D|-0-0-0-0-0-0-----0-0-0-0-0-0-----0-0-0-0-----0-0-0-0---0-0-|
A|-2-2-2-2-2-2---------------------3-3-3-3-----3-3-3-3---3-3-|
E|-3-3-3-3-3-3-----------------------------------------------|

"I believe in the sand beneath my feet..."
    g      D              Cadd9
e|-----3------------2------------0------0-----------| x2
B|---3----------3------0------1----1----------------|
G|-------0----------------------------0-------------|
D|----------0---------------------------------------|
A|------------------------3-------------------------|
E|-3------------------------------------------------|

   g               D        dsus4  Cadd9
e|-3-3-3-3-3-3-----2-2-2-2-2-3-----3-3-3-3-----3-3-3-3---3-3-|
B|-3-3-3-3-3-3-----3-3-3-3-3-3-----3-3-3-3-----3-3-3-3---3-3-|
G|-0-0-0-0-0-0-----2-2-2-2-2-2-----0-0-0-0-----0-0-0-0---0-0-|
D|-0-0-0-0-0-0-----0-0-0-0-0-0-----0-0-0-0-----0-0-0-0---0-0-|
A|-2-2-2-2-2-2---------------------3-3-3-3-----3-3-3-3---3-3-|
E|-3-3-3-3-3-3-----------------------------------------------|

    "Plane came in she said she was crashing..."
   D     C                 g
e|-2-2---3-3-3-3-3-3-3-----3-3-3-3-|x2
B|-3-3---3-3-3-3-3-3-3-----33-3-3-|
G|-2-2---0-0-0-0-0-0-0-----0-000-|
D|-0-0---0-0-0-0-0-0-0-----0-000-|
A|-------3-3-3-3-3-3-3-----xx-x-x-|
E|-------------------------3-333-|


 "One.        And you hold me.    And we are broken.
e|----------------------------------------------|
B|----------------------------------------------|
G|----------------------------------------------|
D|-----12-10-12-12------12-10-12----12-10-12----|
A|-10---------------10-----------10-------------|
E|----------------------------------------------|

"Still there's something I want to do just a little now"
e|--3-3-3-3---3-3-3-3----3-3---------|
B|--3-3-3-3---3-3-3-3----3-3---------|
G|--0-0-0-0---0-0-0-0----0-0---------|
D|--0-0-0-0---0-0-0-0----0-0---------|
A|--0-0-0-0---0-0-0-0----0-0---------|
E|--3-3-3-3---3-3-3-3----3-3---------|

   g               D         dsus4          Cadd9
e|-3-3-3-3-3-3-----2-2-2-2-2-3-----3-3-3-3-----3-3-3-3---3-3----| x8
B|-3-3-3-3-3-3-----3-3-3-3-3-3-----3-3-3-3-----3-3-3-3---3-3----|
G|-0-0-0-0-0-0-----2-2-2-2-2-2-----0-0-0-0-----0-0-0-0---0-0----|
D|-0-0-0-0-0-0-----0-0-0-0-0-0-----0-0-0-0-----0-0-0-0---0-0----|
A|-2-2-2-2-2-2---------------------3-3-3-3-----3-3-3-3---3-3----|
E|-3-3-3-3-3-3--------------------------------------------------|

   "good-by..."
e|----------------------------------------|x3
B|----------------------------------------|
G|---------0---------0-----------2--------|
D|-----2----------0----------2------------|
A|--3----------2---------0----------------|
E|----------------------------------------|

  "Do, do, do..."
   g               D        dsus4  Cadd9
e|-3-3-3-3-3-3-----2-2-2-2-2-3-----3-3-3-3-----3-3-3-3---3-3----| x8
B|-3-3-3-3-3-3-----3-3-3-3-3-3-----3-3-3-3-----3-3-3-3---3-3----|
G|-0-0-0-0-0-0-----2-2-2-2-2-2-----0-0-0-0-----0-0-0-0---0-0----|
D|-0-0-0-0-0-0-----0-0-0-0-0-0-----0-0-0-0-----0-0-0-0---0-0----|
A|-2-2-2-2-2-2---------------------3-3-3-3-----3-3-3-3---3-3----|
E|-3-3-3-3-3-3--------------------------------------------------|

   "good-by..."
e|------------------------------------------|
B|------------------------------------------|
G|---------0---------0-----------2----------|
D|-----2----------0----------2--------------|
A|--3----------2---------0------------------|
E|------------------------------------------|

============================================================================
4. Jumper
============================================================================

Chords (used throughout the song)

   Fmaj7  C   G   G5   Cadd9  Dadd4/9  Am
E|---0--|-0-|-3-|-3--|--3---|---0----|-0-||---------------------|
B|---1--|-1-|-3-|-3--|--3---|---3----|-1-||---------------------|
G|---2--|-0-|-0-|-0--|--0---|---0----|-2-||---------------------|
D|---3--|-2-|-0-|-0--|--2---|---4----|-2-||---------------------|
A|------|-3-|-2-|-x--|--3---|---5----|-0-||---------------------|
E|------|---|-3-|-3--|------|--------|---||---------------------|

Chorus (Intro): Played on an acoustic first time, all other times with eletric
and acoustic in the background.
   Fmaj7      C                     G 					       Fmaj7
E|-0--0---0--0--0---0--0--0-------|----3------3------3-------3--3-----3-0-0|
B|-1--1---1--1--1---1--1--1--1--0-|-3--3--3---3---3--3--3----3--3--3--3-1-1|
G|-2--2---0--0--0---0--0--0--0--0-|-0--0--0---0---0--0--0----0--0--0--0-2-2|
D|-3--3---2--2--2---2--2--2--2--0-|-0--0--0---0---0--0--0----0--0--0--0-3--|
A|-----------3------3--3-----3----|-2-----2---2---2-----2----2-----2-------|
E|--------------------------------|-3-----3---3---3-----0h3--3-----3-------|

		      C       Cadd9         G					 Fmaj7
E|-0-0--0--0--0--0--0-------0-----------|----3------3-------3----------3--0-|
B|-1-1--1--1--1--1--1h3--3--3---3--3--3-|-3--3--3---3----3--3--3----3--3--1-|
G|-2-2--2--2--2--0--0----0--0---0--0--0-|-0--0--0---0----0--0--0----0--0--2-|
D|-3----3--3--3--2--2----2--2---2--2--0-|-0--0--0---0----0--0--0----0--0--3-|
A|------------------3----3---------3----|-2-----2---2----2-----2----2-------|
E|--------------------------------------|-3-----3---3----3-----0h3--3-------|

				C   Cadd9          G   G5
E|-0-|----0--0--0--------0-------0------------|----------------------------|
B|-1-|-1--1--3--1--3--1--1h3--3--3----3--1--0-|----3--3---3----3--3--------|
G|-2-|-2--2--2--2--2--2--0----0--0----0--0--0-|-0--0--0---0----0--0--------|
D|---|-3--3--3--3--3--3--2----2--2----2--2--0-|-0--0--0---0----0--0--------|
A|---|-------------------3----3----------3----|-x-----x---x-------x--------|
E|---|----------------------------------------|-3-----3---3-------3--------|


This part comes in on the "I would understand___." Played on Electric. This is
played only on the first Chorus.

End of Chorus:
   Fmaj7       C Cadd9        G 				    Fmaj7 		 C
E|---0----------------------|-----3-------------3-----------|-----0---------|
B|------1---------1-1---1---|-----3--3----------3-3---3-3---|--------1------|
G|----------------0-0-----0-|-------------0-------0---0-0-0-|---------------|
D|-3------3-0-0h2-----------|---0-------0-----0---------0-0-|-3---------3-0-|
A|--------------------------|-------------------------------|---------------|
E|--------------------------|-3-------------3---------------|---------------|
   Cadd9        G
E|-----0----------|-----3-------------3------||-----------------------------|
B|-----1-1---1----|-----3-3-----------3------||-----------------------------|
G|-------0---0-0--|--------------------------||-----------------------------|
D|-0h2------------|---0------------0---------||-----------------------------|
A|----------------|------------0h2-----------||-----------------------------|
E|----------------|-3------------------------||-----------------------------|

Verse:
   Am		 C	      G     *
E|-0------|-0------|-3------|----------------------------------------------|
B|-1------|-1------|-3------|----------------------------------------------|
G|-2------|-0------|-0------|-0-0--0--0--0--0--0--0--0--0--0--0--0--0--0--0|
D|-2------|-2------|-0------|----------------------------------------------|
A|-0------|-3------|-2------|----------------------------------------------|
E|--------|--------|-3------|----------------------------------------------|
                            */w slight dist. and wah-wah   (play only twice)

   Am	   Dadd4/9			   C
E|-0----|------------0-------------|-------------0------||--|
B|-1----|---------3----3-----------|-------1-----1------||--|
G|-2----|-----------------0--------|----------0---------|---|Go-back-to-Chorus
D|-2----|------4-------------4-----|----2---------------||--|
A|-0----|-3/5-------------------5\-|-3------------------||--|
E|------|--------------------------|--------------------||--|

--------------------------------------------------------
Fmaj7            C                   G -->

I wish you would step back from that ledge my friend

          Fmaj7            C             G -->

You could cut ties with all the lies that youve been living in

    Fmaj7        C           G         XXX

and if you do not want to see me again

        Fmaj7      C            Gxxx

I would understa~~~~~~~~~~~~~~nd

        Fmaj7      C            G  XXX

I would understa~~~~~~~~~~~~~~nd

@#$ Verse 1$#@ ----------------------------------------


  AAM

The agry boy a bit too insane

C

icing over a secret pain

G

  You now you dont belong

AM

 Your the first to fight Your way to loud


C

Your the birst of light on the buiral shroud

G                          xxx

   I know somethings wrong

            AM                    Dsus2     C

...  Cause everyone I knows got a reason, to say

xxxx

Lets put the past away


after reson  Am	   Dadd4/9			   C
E|-0---|------------0-------------|-------------0------||--------------------|
B|-1---|---------3----3-----------|-------1-----1------||--------------------|
G|-2---|-----------------0--------|----------0---------||-Go-back-to-Chorus--|
D|-2---|------4-------------4-----|----2---------------||--------------------|
A|-0---|-3/5-------------------5\-|-3------------------||--------------------|
E|-----|--------------------------|--------------------||--------------------|              
to say
xxxx

Lets put the past away


@#$ Verse 2 $#@ ------------------------------------------------------


 AM

... Well hes on the table and hes gonna code

C

And I do not that that anybody knows What theyre

G

 doing here

         AM

... Your freinds are up too youve been dismised

C

I never thought it would come to this and I

G                 xxx

I want you to know

        AM                    Dsus2         C

Everyone has to face down the deamons, maybe today

xxxxx

We can put the past away

@#$ Chours $#@

        Fmaj7      C            G  XXX

I would understa~~~~~~~~~~~~~~nd

((quiet))   X2

        Fmaj7      C            G  XXX

I would understa~~~~~~~~~~~~~~nd

Fmaj7 C G (4X)

=-=-=-=-=-=-=-=-=-=

Can you put the past away

Fmaj7                 C              G

I wish you would step back from that ledge my friend, I would understand (2x)

Fmaj7                 C              G            XXX

I wish you would step back from that ledge my friend, I would understa~~~~~~~~nd

      Fmaj7      C            G  XXX

I would understa~~~~~~~~~~~~~~~nd

        Fmaj7      C            G  XXX

I would understa~~~~~~~~~~~~~~~nd

Fmaj7 C G (2X Sturming each note once)

Guitar Solo:     Bass Arr. for Guitar:
  G5                     F             C		 G
E|----3-3-3--3------3-||-----------------------|------------------------||--|
B|----3-3-3--3------3-||-----------------------|------------------------||--|
G|----0-0-0--0------0-||-----------------------|------------------------||--|
D|----0-0-0--0------0-||--------3---3----------|-5-5-5-5----------------||--|
A|----x-x-x--x------x-||---------------3-3-3-3-|---------5---5----------||--|
E|----3-3-3--3------3-||--1-1-1----------------|----------------3-3-3-3-||--|

  Soft
E|-----------------------------------|-13--13--12--13-12---------|-----------|
B|-12-12-13--13--12--13-12-13-15-----|--------------------12--15-|--12-13-12-|
G|---------------------------------0-|---------------------------|-----------|
D|-----------------------------------|---------------------------|-----------|
A|-----------------------------------|---------------------------|-----------|
E|-----------------------------------|---------------------------|-----------|

E|-----------------15-----|-12-13-12-13--12-12-13-12-----------|-------------|
B|-13--12-13-12-13-15-----|---------------------------12--x-15-|-12-13-12-13-|
G|--------------------0-0-|------------------------------------|-------------|
D|------------------------|------------------------------------|-------------|
A|------------------------|------------------------------------|-------------|
E|------------------------|------------------------------------|-------------|

E|--------------------|-12-13-12-13-13-12-12-13-12------------|-------------|
B|--12-13-12-13-15----|----------------------------12--x-13/15\13--13-12-13-|
G|------------------0-|---------------------------------------|-------------|
D|--------------------|---------------------------------------|-------------|
A|--------------------|---------------------------------------|-------------|
E|--------------------|---------------------------------------|-------------|

							/w Guitar Two
E|------------------|--13-12-13-x-x-12-13-12--------------|-----------------|
B|-13-12-13-15------|-------------------------12---x-13/15\13---13--12--13--|
G|--------------0-0-|-------------------------------------|-----------------|
D|------------------|-------------------------------------|-----------------|
A|------------------|-------------------------------------|-----------------|
E|------------------|-------------------------------------|-----------------|

E|------------------------------------------|----12--13--12--13---12--13--12-|
B|-13-12--13--12--13--15---15p13p12-----12--|--------------------------------|
G|----------------------------------12------|-12-----------------------------|
D|------------------------------------------|--------------------------------|
A|------------------------------------------|--------------------------------|
E|------------------------------------------|--------------------------------|

E|------------------|-------------------------------------------------------|
B|-12--12--12--13/15\13--13--12--13--13--12--13--12--13--15--15p13p12---12--|
G|------------------|-------------------------------------------------12----|
D|------------------|-------------------------------------------------------|
A|------------------|-------------------------------------------------------|
E|------------------|-------------------------------------------------------|

							Loud:
E|---------------------------------------------||----------------------------|
B|---------------------------------------------||-13--12--13--12--13--12--13-|
G|-0---0--0--0--0--0--0--0--0--0--0--0--0--0--0||----------------------------|
D|---------------------------------------------||----------------------------|
A|---------------------------------------------||----------------------------|
E|---------------------------------------------||----------------------------|

E|--------------||-----13------13-------13--12-------------------|-----------|
B|-15vvv--------||-------------------------------12----12--13b(15)r13--13-12-|
G|---------0--0-||-0-------12-------12---------------------------|-----------|
D|--------------||-----------------------------------------------|-----------|
A|--------------||-----------------------------------------------|-----------|
E|--------------||-----------------------------------------------|-----------|

				Play 3x
E|-----------------------------------||---------------------------------19\|
B|-13----12--13--12--13--15vvv-------||------------------------------------|
G|------------------------------0--0-||-0-0-0-0-0--0--0--0--0--0--0--0-----|
D|-----------------------------------||------------------------------------|
A|-----------------------------------||------------------------------------|
E|-----------------------------------||------------------------------------|

E|---------------0----------------|---------0---------0--------||-----------|
B|----------3-------3-------------|---------1---------1--------||-----------|
G|----------------------0---------|-------------0--------------||-----------|
D|------4-------------------4-----|-----2----------------------||-----------|
A|-/5---------------------------5\|-3--------------------------||-----------|
E|--------------------------------|----------------------------||-----------|

Guitar Two (Played during parts of the solo) Ending Chorus:
  Fmaj7	 C				  G5					Fmaj7
E|-0----0-------0--------0-----0-------|-----------------------------------|
B|-1----1----1--1--1--1--1-----1-------|----------3---------3-----3-----0-1|
G|-2----2----0--0--0--0--0-----0--0--0-|-0--------0---0--0--0--0--0--0--0-2|
D|-3----3----2--2--2--2--2-----2--5--5-|-0--------0---0--0--0--0--0--0--0-3|
A|--------------3-----3----------------|-x--------x---x--x-----x-----x-----|
E|-------------------------------------|-3--------3---3--3-----0-----3-----|

E|-0------0-------0--0-----0---0--------|---------------------------------||
B|-1--1---1----1--1--1--1--1---1---0--0-|-3-------3---------3--------3----||
G|-2--2---2----0--0--0--0--0---0---5--5-|-0-------0---------0--------0----||
D|-3--3---3----2--2--2--2--2---2--------|-0-------0---------0--------0----||
A|----------------3-----3---------------|-x-------x---------x--------x----||
E|--------------------------------------|-3-------3---------3--------3----||

3rd, 4th, and 5th time of Ending Chorus:
   Fmaj7            C   Cadd9             G
E|-0--0--0---0---0--0--0-------0-----------|-----------3----3---3-----||----|
B|-1--1--1---1---1--1--1h3--3--3---3--3--3-|-3--3--3---3----3---3-----||----|
G|-2--2--2---2---2--0--0----0--0---0--0--0-|-0--0--0---0----0---0-----||----|
D|-3-----3---3---3--2--2----2--2---2--2--0-|-0--0--0---0----0---0-----||----|
A|---------------------3----3---------3----|-2--2--2---2----2---2-----||----|
E|-----------------------------------------|-3--3--3---3----3---3-----||----|

Outro:
   Fmaj7  C	     G		Fmaj7  C	   G               Fmaj7      C
E|-0-----0-----|-3-----|-0-----0------|--------3-------|-------------------|
B|-1-----1-----|-3-----|-1-----1------|-0---------3--0-|-1---1-----1-------|
G|-2-----0-----|-0-----|-2-----0------|-0--------------|-2---------0-------|
D|-3-----2-----|-0-----|-3-----2------|-0--------------|-3------0--2-------|
A|-------3-----|-2-----|-------3------|-2--------------|-----------3-------|
E|-------------|-3-----|--------------|-3--------------|-------------------|

   G		 *Fmaj7       C	     G
E|----------|----------------------|-----------|-------------|------------||
B|-0--------|----------1-----------|-----------|-------------|------------||
G|-0------0-|------2------0--------|-0---------|-------------|------------||
D|-0--------|-3-----------2--------|-0---------|-------------|------------||
A|-2--------|-------------3--------|-2---------|-------------|------------||
E|-3--------|----------------------|-3---------|-------------|------------||
		  */w heavy reverb


@#$ Notation Guide $#@

h = hammer on
p = pull off
/ = slide up
\ = slide down
b = bend
r = release bend
()= indicates note to bend to
v = vibrato
x = mute string with fret hand

============================================================================
5. Graduate
============================================================================

**Tuning**
Drop D (DADGBE)


INTRO/CHORUS:
e|------------------------|
B|------------------------|
G|--7p5-7---5h7p5-7-------|
D|--7p5-7---5h7p5-7-------|
A|----------- ------5--7--|
D|------------------------|


SOLO:
e|--------14--16p14-16-16p14-----|---------14-16p14-16-16p14---------|
B|--12-15--------------------15--|--12--15-------------------15------|
G|-------------------------------|-----------------------------------|
D|-------------------------------|-------------------------------7/--|
A|-------------------------------|-------------------------------7/--|
D|-------------------------------|-------------------------------7/--|

e|-------14-16p14-16-16p14-------------------------|
B|-12-15-------------------15/17--17-17-17-17-17/--|
G|-------------------------------------------------|
D|-------------------------------------------------|
A|-------------------------------------------------|
D|-------------------------------------------------|


BRIDGE:
e|------------------------------|      |-----|
B|------------------------------|      |-----|
G|o--7-7-7\0----x-x--7-7--x-x--o| then |-----|
D|o--7-7-7\0----x-x--7-7--x-x--o|      |--9--|
A|---5-5-5\0----x-x--5-5--x-x---|      |--9--|
D|------------------------------|      |--9--|

           repeat once


============================================================================
6. How's It Going To Be
============================================================================

Intro:
Fig A

---1---1----1--1--1---1--x--0---0---------------------------|
---1---1----1--1--1---1--x--1---1--3--3---3-3--3--3-3--3----|
---2---2----2--2--2---2-----0---0--3--3---3-3--3--3-3--3----|
---3---3----3--3--3---3-----2---2--3--3---3-3--3--3-3--3----|
---3---3----3--3--3---3-----3---3--1--1---1-1--1--1-1--1----|
---1---1----1--1--1---1-------------------------------------|

--5--5--5---6--5--5--5--5--0---0-------1---1---1--1--1------|
--6--6--6---6--6--6--6--6--1---1-------1---1---1--1--1------|
--5--5--5---5--5--5--5--5--0---0---3---3---3---3--3--3------|
--7--7---------7-----7-----2---2---3---3---3------3--3------|
--8--8---------8-----8-----3---3---1---1---1------1--1------|
------------------------------------------------------------|


--1/5--5--5--5-5--5--0----0-----1---1--1--1--1--1---1-------|
--1/6--6--6--6-6--6--1----1-----1---1--1--1--1--1---1-------|
--3/5--5--5--5-5--5--0----0-----3---3--3--3--3--3---3-------|
--3/7--7--7--7-7--7--2----2--3--3------------1--3---3-------|
--1/8--8--8--8-8--8--3----3--1--1------------1--1---1-------|
------------------------------------------------------------|


2nd guitar w/fig A

------------------------------------------------------------|
---10h11p10---------10h11p10----10h11--13------10h11p10-----|
------------10---10----------10-------------10-----------10-|
------------------------------------------------------------|
------------------------------------------------------------|
------------------------------------------------------------|


------------------------------------------------------------|
------10h11p10-----10h11---------10h11p10---------10h11p10--|
--10-----------10--------------------------10--10-----------|
--------------------------10--------------------------------|
------------------------------------------------------------|
------------------------------------------------------------|

--------------------------------------------------------------|
------10h11-13------10h11p10----------10h11p10------10-11-----|
-10--------------10----------10---10------------10------------|
----------------------------------------------------------10\-|
--------------------------------------------------------------|
--------------------------------------------------------------|

1st & 2nd Verses

--5--5--5---6--5--5--5--5--0---0-------1---1---1--1--1------|
--6--6--6---6--6--6--6--6--1---1-------1---1---1--1--1------|
--5--5--5---5--5--5--5--5--0---0---3---3---3---3--3--3------|
--7--7---------7-----7-----2---2---3---3---3------3--3------|
--8--8---------8-----8-----3---3---1---1---1------1--1------|
------------------------------------------------------------|


--1/5--5--5--5-5--5--0----0-----1---1--1--1--1--1---1/------|
--1/6--6--6--6-6--6--1----1-----1---1--1--1--1--1---1/------|
--3/5--5--5--5-5--5--0----0-----3---3--3--3--3--3---3/------|
--3/7--7--7--7-7--7--2----2--3--3------------1--3---3/------|
--1/8--8--8--8-8--8--3----3--1--1------------1--1---1/------|
------------------------------------------------------------|


1st & 2nd Choruses
play 2x
                                     9x
--3----3----3-3--3---3---5---5-------0----------------------|
--3----3----3-3--3---3---5---6-------1----------------------|
--3----3----3-3--3---3---5---5---0---0----------------------|
--5----5----5-5--5---5---7---7---2---2----------------------|
--5----5----5-5--5---5---8---8---3---3----------------------|
--3----3----3-3--3---3--------------------------------------|

                                     7x
--3----3----3-3--3---3---5---5-------1----------------------|
--3----3----3-3--3---3---5---6-------1----------------------|
--3----3----3-3--3---3---5---5-------3----------------------|
--5----5----5-5--5---5---7---7---3---3----------------------|
--5----5----5-5--5---5---8---8---1---1----------------------|
--3----3----3-3--3---3--------------------------------------|


Bridge
  8x           8x         8x        5x   4x           8x
--3------------1----------1--------------0------------3-----|
--3------------1----------1---------5----1------------3-----|
--3------------3----------2---------5----0----5---x---3-----|
--5------------3----------3---------5----2----5---x---5-----|
--5------------1----------3---------3----3----3-------5-----|
--3-------x----------x----1---------3---------0-------3---0-|


------------------|
------------------|
---3-----3--------|
---3-----3--------|
---1-----1--------|
--------------x---|

3rd Verse:
                                         8x          4x
------1--1---1--1------------------------6----6\-----1------|
------1--1---1--1------------------------6----6\-----1------|
--2---2--2---2--2---2-------------9\7----7----7\-2---2---2--|
--3---3--3---3--3---3---x----10--10\8----8----8\-3---3---3--|
--3---3--3---3--3---3---x----10--10\8----8----8\-3---3---3--|
--1---1--1---1--1---1-----/8--8---8\6----6----6\-1---1---1--|


--------------|
--------------|
--------------|2x
-x------10----|
-x------10----|
----/8---8----|


3rd chorus
gtr 1
     8x        6x              8x        12x    8x
-----3---------1---------------1----------0-----3------1----|
-----3---------1---------------1----------1-----3------1----|
-----3----x----3----3--3-------2----0-----0-----3---0--3----|
-----5----x----3----3--3--x----3----2-----2-----5---0--3----|
-----5---------1----1--1--x----3----------3-----5------1----|
-----3---------1---------------1----------------3-----------|

3rd chorus 2nd guitar
------------------------------------------------------------|
--10----10----10----10------13----13----13--13--------10----|
-----10----10----10----10------10----10-10------10-10----10-|
------------------------------------------------------------|
------------------------------------------------------------|
------------------------------------------------------------|

------------------------------------------------------------|
-10----10----10----13--13---------13--------13------13------|
----10----10----10-----12--10-10--12--10-10-12--10--12--10--|
------------------------------------------------------------|
------------------------------------------------------------|
------------------------------------------------------------|

[ Tab from: http://www.guitaretab.com/t/third-eye-blind/69026.html ]
-------------------------------------------|
--13----------10----10----10----10------13-|
--12---10-10-----10----10----10----10---10-|
-------------------------------------------|
-------------------------------------------|
-------------------------------------------|


Outro

------------------5-------0-----------1---------------------|
------------------6-------1-------1---1-------------5h6-----|
--5--5--5---5--5--5---0---0---3---3---3----3---3----5-------|
--7--7--7---7--7--7---2---2---3---3--------3---3----7-------|
--8--8--8---8--8--8---3---3---1---1--------1---1------------|
------------------------------------------------------------|

------------------------0-------1---1---1-------------------|
-6---5h6--------6---1---1-------1----------3---1------------|
-5---5-----5----5---0---0---3---3--------------3---3--------|
-7---------7--------2-------3---3---------------------------|
-----------8------------------------------------------------|
------------------------------------------------------------|


h=hammeron                         t=tap w/right hand
p=pulloff                          tr=trill
/\=slide                           ps=pick scrape
*=artificial harmonic              b=bend(to note)
+=natural harmonic

============================================================================
7. Thanks Alot
============================================================================

Standard tuning

Intro

   Em	       D		Bm	         G
E-----5--5--5-5------5--5--5-5------5--5--5-5-------------------|
B-----5--7--5-5------5--7--5-5------5--7--5-5-------------------|
G-----0--0--0-0------0--0--0-0------0--0--0-0-------------------|     x2
D-------------------------------------------------x-------------|
A--7--------------5---------------------------------------------|
E--------------------------------7--------------x----3-3-3------|

Intro(w/dist) x2

Verse1

   Em          D              Bm    G
E---------------------------------------------|
B-----10-10-10-10-----------------------------|
G-----11-11-11-11---------------------4-------|    x4
D--9--12-12-12-12------7------9-9-----5-5-----|
A--7---------------7h9--------9-9-9\5-5-5-----|
E-------------------------x-x-7-7-7\3-3-3-----|

Intro(w/dist) x2

Verse2 (includes fill 1) x4

fill 1:
           Em
D--4h5p4-0h2                      D--------|
A-----------   Verse ends up with A----2-4-|
E-----------                      E--5-----|

Chorus

  D                G/B  G		               A      G
E--5---5---5----2--------3-----------------       ----------|
B----3---3---3--3--------3--7-7b-7p5-7-7b-7       ----------|
G---------------2--------0-----------------   x3  ----------|  x1
D---------------0----0---0-----------------       ----------|
A------------------2-2-2-2-----------------       ----------|
E----------------------3-3-----------------       ----------|

Verse3 x4

Chorus x3  x1

Solo(Verse) x4

 w/wah  E       D       Bm                 G   Em
E------------------------------------------------------------------|
B--10b----15--15-------------------------------12------12h14-15----|
G---9b----14b---14---11-12-11--11h12p11-------------------------14-|
D---------------------------------------14-12-------14-------------|
A------------------------------------------------------------------|
E------------------------------------------------------------------|

       Bm                     G  Em             D       Bm
E--14-14h15p14-14h15p14-------------------------------------------------|
B-----------------------17\15-------------14/15-------------------------|
G-----------------------------16----14/16-------14---11-12-11--11h12p11-|
D-----------------------------------------------------------------------|
A-----------------------------------------------------------------------|
E-----------------------------------------------------------------------|

       G    Em   D   Bm   G
E-----------------------------|
B--------14-14b-14-14b1414b14-|
G-----------------------------|
D--14-12----------------------|
A-----------------------------|
E-----------------------------|


Bridge
   A          G
E--------------------|
B--------------------|
G--2-----------------|    x4
D--2----------0------|
A--0----------2------|
E-------------3------|

Intro x4 (w/bass-solo)

Chorus x4

Bridge2
                  w/eff.loop
E---------------  ----------------------------------------------|
B---------------  ----------------------------------------------|
G---------------  ----------------------------------------------|  x2
D---------------  -----------------------------------2b-2-------|
A---------------  ---4h5-5-4h5p4h5--2-2----------2h5------5p2---|
E--3-3-2--3-3-5-  ----------------------3-3--3h5----------------|


Chorus x2

Ending

D-----------------|
A---------------5-|
E--3-3-2--3-3-5---|

============================================================================
8. Burning Man
============================================================================

Standard Tuning

Intro/Verse

E----------------------10-10-----------------------10-10-|
B------7p5h7p5h7-------10-10-------7p5h7p5h7-------10-10-|
G------7p6h7p6h7-------11-11---7---7p6h7p6h7-------11-11-|
D--0---------------------------0-------------------------|
A--------------------------------------------------------|
E-----------------7-7-------------------------7-7--------|

E----------------------10-10--------------------|
B------7p5h7p5h7-------10-10-------7p5h7--------|
G------7p6h7p6h7-------11-11---7---7p6h7--------|
D--0---------------------------0----------------|
A-----------------------------------------4-4-5-|
E-----------------7-7---------------------2-2-3-|

Verse1
 The rise and fall of my sloppy love, the smatterings, and splatterings
 they'll get you, im not the one you are thinking of, maybe you thought
 i'd call, instead of crashing down your hall.

PreChorus1
 G        G/A                 G            G/D
  Hold me down, i wanna find out, you know you will never get what you
   D
  need

Verse(instr)
Fill 1
E--9/10----|
B-------10-|
G----------|

Verse2
 Blue diamond strike 'em anywhere, first we caffeinate, then incinerate
 we'll get you, and sparks will fly in the summer air, did you pull out
 of your stall, maybe i'll see you after all

Chorus
 G        G/A                 G          G/D
  Hold me down, i wanna find out, we say no cause i live my life like a
 D           G       D           A  D           G       D          G
  burning man, like a burning man, a burning man, like a burning man
 F#                G
  and i won't get enough until my legs are broken

Verse(instr)+ Fill 1

Verse3
 The stars they shine, in a empty void, life is not to fear, life is to
 enjoy, He'll get you, Mr death catches all someday, baby i thought you'd
 call, or leave a light on in the hall

PreChorus

Chorus

			Tabbed by Joakim Ax  
------------------

	b= bend amount told( )
	r= release bend

============================================================================
9. Good For You
============================================================================

 Intro/Main Riff:
E---|---|---|---|
B---|---|---|---|
G-7-|-3-|---|-3-|
D-7-|-3-|-3-|-3-|
A-5-|-1-|-3-|-1-|
E-5-|-1-|-1-|-1-|

Bridge:
E-------------|
B-------------|
G-5/7-7-------|
D-5/7-7--3-5-5|
A-3/5-5--3-5-5|
E--------1-3-3|

============================================================================
10. London
============================================================================

Open Tuning: DADF#AD

Intro
-------------------------------------------------------------------------|
------------------------------------------------13b----------------------|
----8b-----------11b---------------8b------------------------------------|
-9-----7-7-9/12--------7-7--7/9-------7-7--9/12------5\4-2-4-------------|
-9-----7-7-9/12--------7-7--7/9-------7-7--9/12------5\4-2-4-------------|
-9-----7-7-9/12--------7-7--7/9-------7-7--9/12------5\4-2-4-------------|


this is fig 1
-------------------------------------------------------------------------|
-------------------------------------------------------------------------|
----8b-----------11b---------------8b------------11b---------------------|
-9-----7-7-9/12--------7-7--7/9-------7-7--9/12------5\4-2-0-------------|
-9-----7-7-9/12--------7-7--7/9-------7-7--9/12------5\4-2-0-------------|
-9-----7-7-9/12--------7-7--7/9-------7-7--9/12------5\4-2-0-------------|


this is fig 2
-------------------------------------------------------------------------|
-------------------------------------------------------------------------|
-------------------------------------------------------------------------|
-9--9---7-7-7--9/12--12---7-7-7--7/9--9---7-7-7---9/12--12---17\16-14-12-|
-9--9---7-7-7--9/12--12---7-7-7--7/9--9---7-7-7---9/12--12---17\16-14-12-|
-9--9---7-7-7--9/12--12---7-7-7--7/9--9---7-7-7---9/12--12---17\16-14-12-|

Through the satellites, I fight with you,
That local brew is spillin',
I know just how you spend your time.
I want to get my hands on him,

this is fig 3
-------------------------------------------------------------------------|
-------------------------------------------------------------------------|
-------------------------------------------------------------------------|
-9--9---7-7-7--9/12--12---7-7-7--7/9--9---7-7-7---9/12--12-----5\4-2-4---|
-9--9---7-7-7--9/12--12---7-7-7--7/9--9---7-7-7---9/12--12-----5\4-2-4---|
-9--9---7-7-7--9/12--12---7-7-7--7/9--9---7-7-7---9/12--12-----5\4-2-4---|

Somebody's party in a London flat,
You're where it's at and I know,
You wanna see me lose my mind,


this is fig 4
-------------------------------------------------------------------------|
-------------------------------------------------------------------------|
----8b-----------11b---------------8b------------11b---------------------|
-9-----7-7-9/12--------7-7--7/9-------7-7--9/12------5\4-2-4-------------|
-9-----7-7-9/12--------7-7--7/9-------7-7--9/12------5\4-2-4-------------|
-9-----7-7-9/12--------7-7--7/9-------7-7--9/12------5\4-2-4-------------|


play fig 2
I'm tired of chasing after you
the residue is jealous,
See me on the dark side of your mind,
I want to get my hands on him,

play fig 3
To a club that's pounding in the London rain,
The world could end We wouldn't hear it.
I know just what's on your mind,

this is fig 5
--------------------------------------------------------------------------|
-------------------------------------------------------------------xxxxxx-|
-------------------------------------------------------------------xxxxxx-|
-7-7-7-7-7-7-7-7---5-5-5-5-5-5-5-5---9-9-9-9-9-9-9-9---7-7-7-7-7---xxxxxx-|
-7-7-7-7-7-7-7-7---5-5-5-5-5-5-5-5---9-9-9-9-9-9-9-9---7-7-7-7-7---xxxxxx-|
-7-7-7-7-7-7-7-7---5-5-5-5-5-5-5-5---9-9-9-9-9-9-9-9---7-7-7-7-7---xxxxxx-|
I see the way your face has changed, We're no good for each other,

                                           fig 6 starta here
-------------------------------------------|-----------------------------|
-------------------------------------------|-----------------------------|
-------------------------------------------|-----------------------------|
----7-7-7-7-7-7-7-7---5-5-5-5-5-5-5-5------|-10-10-10-10-10-10-10-10-----|
----7-7-7-7-7-7-7-7---5-5-5-5-5-5-5-5------|-10-10-10-10-10-10-10-10-----|
----7-7-7-7-7-7-7-7---5-5-5-5-5-5-5-5------|-10-10-10-10-10-10-10-10-----|
You tricked me into coming here,  So let go,I don't wanna go to

-------------------------------------------------------------------------|
-------------------------------------------------------------------------|
-------------------------------------------------------------------------|
-12-12-12-12-12-12-12-12----10-10-10-10-10-10-10-10---5-5-5-5-5-5-5-5----|
-12-12-12-12-12-12-12-12----10-10-10-10-10-10-10-10---5-5-5-5-5-5-5-5----|
-12-12-12-12-12-12-12-12----10-10-10-10-10-10-10-10---5-5-5-5-5-5-5-5----|
 London (I told you I don't care) I don't wanna go to London, To live


-------------------------------------------------------------------------|
-------------------------------------------------------------------------|
-------------------------------------------------------------------------|
-10-10-10-10-10-10-10-10------12-12-12-12-12-12-12-12--------------------|
-10-10-10-10-10-10-10-10------12-12-12-12-12-12-12-12--------------------|
-10-10-10-10-10-10-10-10------12-12-12-12-12-12-12-12--------------------|
 there, I don't want to go to London, All your friends

-------------------------------------------------------------------------|
-------------------------------------------------------------------------|
-------------------------------------------------------------------------|
-10-10-10-10-10-10-10-10---------5-5-5-5-5-5-5-5-------------------------|
-10-10-10-10-10-10-10-10---------5-5-5-5-5-5-5-5-------------------------|
-10-10-10-10-10-10-10-10---------5-5-5-5-5-5-5-5-------------------------|
afflicted, I don't want to go to London. She's addicted.


play fig 4

play fig 2
I saw you with him,
I know where you've been,
That nose is broken wide open,
Your way has got me out of line.
I want to get my hands on him.

play fig 3
You're so sick just to make me prove,
It takes a fight to move you,
I know just what's on your mind.

play fig 5
It's been this way a thousand years,
We torture each other.
So why the hell d'you call me here,
When you know,

play fig 6
l don't wanna go to London,
I told you I don't care,
I don't wanna go to London,
To live there,
I don't wanna  go to London,
All your friends afflicted,
I don't wanna go to London.
She's addicted.

bridge
------------------------------------------------------|
------------------------------------------------------|
-----------------------------------------------------.|
-9-9-9-9---10-10-10-10---12-12-12-12---13-13-13-13---.|
-9-9-9-9---10-10-10-10---12-12-12-12---13-13-13-13----|
-9-9-9-9---10-10-10-10---12-12-12-12---13-13-13-13----|
repeat 4x


play fig 6
l don't wanna go to London,
I told you I don't care,
I don't wanna go to London,
'Cause you're not there.
Even when I see you somewhere else in London.

play fig 4

============================================================================
11. I Want You
============================================================================

First, tune to DBGDGD (From the order of EADGBe)

Chords are played in this order:    G5     Asus2     Am     Cmaj7     C
Cmaj7     (That was intro)      G5    G6     Asus2     Am     Em     Am
G5     G6     Asus2     Am     Cmaj7     Asus2    Am      G5     G6
Asus2     Am      Em     Am     G5      Asus2     Am     Cmaj7   (that was
verse)      Chorus  G5     Am     Cmaj7     A7sus2     Am     G5     Sm
Cmaj7     Am

Bridge     Em     G5     Am     Em     G5     Em     G5     Am
Interlde     G5     Am     Cmaj7     A7sus2     Am     G5     Am     Cmaj7
  Am

Should be right on. Play with CD for correct chord changes.
Just follow the chord sequence
       EADGBe Strings
G5      2x003x
G6      2x0030
Asus2   x023xx
Am      x02310
Em      023000
G       xx000x
Cmaj7   x32000
A7sus2  x01000
C       x32010

============================================================================
12. The Background
============================================================================

DADF#AD

---------0h4p0---0--------0-----0h4p0---0---------0-----------------------|
---------------4----------0-----------4-----------0-----------------------|
----------------------0---0-----------------------0-----------------------|
--------------------0-----------------------5--5--------------------------|
--------------------------------------------5-----------------------------|
--------------------------------------------5-----------------------------|
    Intro x 2 1/2 times for the half just play the first half of the intro

--------------------------------------------------------------------------|
---------------0---0-0-0-0-0-0--------------------------------------------|
-------------0-----0-0-0-0-0-0--------------------------------------------|
-----------0-------0-0-0-0-0-0-------5-7-5h7-5-7-5h7-7-5------------------|
-------------------------------------5-5-5---5-5-5---5-5------------------|
--------------------------------------------------------------------------|
 Verse 1 repeat 3 and 1/2 times. For the half just play everything open

---------------------12-12-12--x----7-7-7--x---0--------------------------|
---------------------12-12-12--x----7-7-7--x---0--------------------------|
-------------0-------12-12-12--x----7-7-7--x---0--------------------------|
-------------9-------12-12-12--x----7-7-7--x---0--------------------------|
-------------9------------------------------------------------------------|
-------------9------------------------------------------------------------|
   this is after he says "in the background"

------------------------------5---------5---------------------------------|
--------0-0-0-0-0-0-------------------------------------------------------|
--------0-0-0-0-0-0---5-5h7-7----5h7-7------------------------------------|
--------0-0-0-0-0-0---5-5---5----5---5------------------------------------|
--------------------------------------------------------------------------|
--------------------------------------------------------------------------|
 Verse 2

----------------0-0-0-0-0-0-0-0-0-------------0-0-0-0-0-0-----------------|
----------------0-0-0-0-0-0-0-0-0-------------0-0-0-0-0-0-----------------|
----------------7-7-7-7-7-7-7-7-7-------------8-8-8-8-8-8-----------------|
----------------7-7-7-7-7-7-7-7-7-------------9-9-9-9-9-9-----------------|
----------------x-x-x-x-x-x-x-x-x-------------x-x-x-x-x-x-----------------|
----------------7-7-7-7-7-7-7-7-7------7/9----9-9-9-9-9-9-----------------|
 Pre-Chorus    "the plans i made.....them....when you come swimming...

--------------------------------------------------------------------------|
-----------------------10-10-10-10-10-10-0-0-0-0-0-0-0-0-0-0-0-0---10-----|
-------------12-12-12--12-12-12-12-12-12-8-8-8-8-8-8-8-8-8-8-8-8---12-----|
-------------12-12-12--12-12-12-12-12-12-9-9-9-9-9-9-9-9-9-9-9-9---12-----|
--------------x--x--x---x--x--x--x--x--x-x-x-x-x-x-x-x-x-x-x-x-x----x-----|
-------------12-12-12--12-12-12-12-12-12\9-9-9-9-9-9-9-9-9-9-9-9-9/12-----|
 Chorus  "view and i'm hanging on your words like i always used to do"Repeat

-----------x--0h4p0------------x------------------------------------------|
-----------x----------0--------x------------------------------------------|
-------0-0-x--------0----0-0-0-x------------------------------------------|
-------0-0-x-------------5-5-5-x------------------------------------------|
-------0-0-x-------------5-5-5-x------------------------------------------|
-------0-0-x-------------5-5-5-x------------------------------------------|
 Bridge

--------------------------------------------------------------------------|
--------------------------------------------------------------------------|
---------7--7--7--7--7--7--7--7--7--7-------------------------------------|
---------7--7--7--7--7--7--7--7--7--7-------------------------------------|
---------x--x--x--x--x--x--x--x--x--x-------------------------------------|
---------7--7--7--7--7--7--7--7--7--7-------------------------------------|
 "cause i felt you long after we were throouuuuugh"

------17--17-16b17r16--12v----14/17-17-16b17r16-12v-12-14-12h14p12--------|
--------------------------------------------------------------------------|
--------------------------------------------------------------------------|
--------------------------------------------------------------------------|
--------------------------------------------------------------------------|
--------------------------------------------------------------------------|

(Solo)

------17--17-16b17r16--12v-----------------------------17-17-16b17r16--12v|
-----------------------------12-12/10---10/9---9/7v-----------------------|
--------------------------------------------------------------------------|
--------------------------------------------------------------------------|
--------------------------------------------------------------------------|
--------------------------------------------------------------------------|


---17--17-16b1716-12v---17-17-16b17r16--12v-------------------------------|
--------------------------------------------------------------------------|
-----------------------------------------------0-0-0-0-0-0-0--------------|
-----------------------------------------------5-5-5-5-5-5-5--------------|
-----------------------------------------------5-5-5-5-5-5-5--------------|
-----------------------------------------------5-5-5-5-5-5-5--------------|
                                             "i only know because"

------------------------0h4p0---0-------0---------------------------------|
------------------------------0---0-----0---------------------------------|
----------------------------------------0---------------------------------|
----------------------------------------0---------------------------------|
----------------------------------------0---------------------------------|
----------------------------------------0---------------------------------|
  "in the background.."

--------------------7-7-4-4------0-0--------------------------------------|
--------------------x-x-x-x------0-0--------------------------------------|
--------------------0-0-0-0--7-7-0-0-7-7--10-10-10h12p10-10---------------|
--------12-12-12----5-5-5-5--7-7-0-0-7-7---x--x--x-x-x-x--x---12-12-12----|
---------x--x--x----5-5-5-5--7-7-----7-7---x--x--x-x-x-x--x----x--x--x----|
--------12-12-12----5-5-5-5--7-7-----7-7--10-10-10-------10---12-12-12----|
 Outro


============================================================================
13. Motorcycle Drive By
============================================================================

 Chords used:

     C    Amin7   G6     F    C/G  Fmaj7   G6sus   A7sus
E----0-----0------0-----1-----0-----0------0-------0-----|
A----1-----1------3-----1-----1-----1------1-------3-----|
G----0-----0------0-----2-----0-----2------0-------0-----|
D----2-----2------0-----3-----2-----3------0-------2-----|
A----3-----0------2-----3-----3------------2-------0-----|
E-----------------3-----1-----3------------3-------------|


Intro part:

     C                              Fmaj7
E---------------------------------|-----0-------0-------0-------0------|
B----1---1---1---1---1---1---1--1-|---1---1---1---1---1---1---1---1----|
G------0-------0-------0-------0--|------------------------------------|
D---------------------------------|-3-------3-------3-------3----------|
A--3-------3-------3-------3------|------------------------------------|
E---------------------------------|------------------------------------|

                                      Verse:

  C                                  |Summertime and the wind ....
                                     | C/G
------0-----0-----0-----0-----0------|-----0-----0----------0-----0----|
----1-----1-----1-----1-----1--------|---1-----1------1---1-----1------|
--0-----0-----0-----0------0------0--|-------0-----0---------0---------|
-------------------------------------|------------------------------2--|
--3----------------------------------|-----------------3---------------|
-------------------------------------|-3-------------------------------|


Chelsea and I don't know what I'm doing  |my .....|
                                         |
 A7sus                                   | G6
-------0-----0---------0-----0---0---0---|----0-----0---------0-----0----|
-----3-----3-----3---3------3---3---3---3|---3----3-----3----3----3----3-|
---------0-----0-----------0---0---0---0-|------0-----0---------0----0---|
-----------------------------------------|-------------------------------|
-0-----------------0---------------------|-------------------------------|
-----------------------------------------|-3--------------3--------------|


 windows, and I'm sleeping on the   |you, thats.....
                                    |
 Fmaj7                              | C
------O-----0---------O------O------|-----0-----0----------0------0-----|
----1-----1-----1---1------1-----1--|---1-----1------1----1-----1-----1-|
--------2----------------2-----2----|-------0-----------------0-----0---|
--3-----------3---3-----------------|-------------3---------------------|
------------------------------------|-3----------------3----------------|
------------------------------------|-----------------------------------|


have you,           I knew that before|you did.....
 Amin7                                | G6
------0-----0------------0------0-----|-----0------0----------0-----0----|
---1------1------1----1-------1-----1-|---3------3-----3----3-----3----3-|
--------0-------------------0-----0---|--------0-----0----------0-----0--|
--------------3-----------------------|----------------------------------|
-0------------------0-----------------|----------------------------------|
--------------------------------------|-3-----------------3--------------|


stupid.             And there's this|....
Fmaj7                               | C
------O-----0---------3------O------|-----0-----0-----------0-----0-----|
----1-----1-----1---1------1-----1--|---1-----1-----1-----1-----1-----1-|
--------2----------------2-----2----|-------0-----------------0-----0---|
--3-----------3---3-----------------|-------------3---------------------|
------------------------------------|-3-----------------3---------------|
------------------------------------|-----------------------------------|


always been                        I've|never ...
  Amin7                                | G6
-------0-----0------------0------0-----|-----0------0---------0-----0----|
----1------1------1----1-------1-----1-|---3------3-----3---3-----3----3-|
---------0-------------------0-----0---|--------0-----0---------0-----0--|
---------------3-----------------------|---------------------------------|
--0------------------0-----------------|---------------------------------|
---------------------------------------|-3-----------------3-------------|

 I've,              never been ...
  Fmaj7
------O-----0-------0--------|
----1-----1-----1---1--------|
--------2-----------2--------|
--3-----------3-----3--------|
-----------------------------|
-----------------------------|


Then...
Lead guitar as the rythym guitar plays the chords

     C
E----8--8-8--8-8---8-8-8-8/10\8----|
B----8--6-8--6-8---6-8p6-8/10\8----|
G----------------------------------|
D----------------------------------|
A----------------------------------|
E----------------------------------|

     F
|----8--8-8--8-8---8-8-8-8/10\8----|
|----8--6-8--6-8---6-8p6-8/10\8----|
|----------------------------------|
|----------------------------------|
|----------------------------------|
|----------------------------------|


(keep fingerpicking using the same fingerings as above.
Lead Guitar improvs)

lead guitar improv
play around using these fingerings....do what you want

|-----------------12-----------12------------10------------|
|----------13--------------13-------------13-----13--------|
|---12--12-----12----12--12--------12--12------------------|
|----------------------------------------------------------|
|----------------------------------------------------------|
|----------------------------------------------------------|


C
Visions of you on a ....

    A7sus                                                     G6
The cigarette ash flies in your eyes, ...

Fmaj7                         C
And say the world, it ...


I don't believe you, You ....

  Amin7                                        G6sus
Careening through the ...

                     Fmaj7
you're guiltless ...

                           C
I hope you take a piece ...

                                                         Amin7
And there's things ....

                G6sus                                 Fmaj7
I would like to build ....

                 C                     A7sus
And there's this burning, ....,

     G6                       Fmaj7
I've never been so .....

C/G* (distorted strumming)
I've never .....

(strum) Amin7  G6sus F


                 Amin7                          F
and there's this burnin', uh huh.....,

                 C/G
yeah, yeah, yeah...


Where's the soul. I want ....

                                             Amin7
The surface is everything....

                  G6sus
Someone would see .....

                C/G                  Amin7
And this is the last time, ...

    G6sus                             F
and I'll get over you, ....

                 C/G                        Amin7
And there's this burning, just ....

     G6sus                           F
I've never been so alone, ....


 C (back to picking the intro)  Fmaj7
alive...........................

Outro:

C
 I go home to the coast. It .....
              Amin7
I paddle out, On the water, Alone,  ....

        G6sus                 C
I'm not thinking of you ....

                     Amin7
The sun goes down in ....

           G6sus
Darkly coming to take....

Fmaj7          G6sus                    Fmaj7
Home, And I've never been so ....

============================================================================
14. God of Wine
============================================================================

   intro, verse:
 A5              Asus2           F#m                 D5/A
e-----------------------------------------------------------5-5-----------|
B-------5-5-------------0-0----------------2-3-2--------------------------|
G---------------------------2-2----------2-------2---------------7-7------|
D---7-7-----7-7-----2-2-------------4--4-----------------7-7--------------|
A-------------------------------------------------------------------------|
E-5-------------\0---------------2-----------------2/5--------------------|

if you have two guitars like my band, the other can play:
----------------------------------------------------------------|
----------------0-----------------------------------------------|
----------------2---------------2--------------------7----------|
--7-------------2---------------4--------------------7----------|
--7-------------0---------------4--------------------5----------|
--5-------------0---------------2--------------------5----------|

pre-chorus
A5          E5            F#5         A5
-----------------------------------------------|
--------5b-----------------------2b------------|
--------------------4b-------------------------|
-7-7--------2-2-----------4-4---------7-7------| repeat until . . .
-7-7-etc----2-2-etc-------4-4-etc-----7-7-etc--|
-5-5--------0-0-----------2-2---------5-5------|

 D                           A5 Asus4  A
-------------------------------------------------|
-------------------------------------------------|
(11)(11)---------------------------7-6-----------|
-12--12----------------------777---7-7-----------|
-12--12-etc------------------777---7-7-----------|
-10--10----------------------555---5-5-----------|
       I can't keep it all together

----------------------------------------------------|
----------------------------------------------------|
----------------------------------------------------|
--------22-------------------44------------------4~-|
--------22-etc---------------44-etc--------------4~-|
--------00-------------------22------------------2~-|
and the siren's song . . . . truth i can't escape

every thought that i repent there's another chip you haven't spent
and you're cashing it all in; where do we begin to get clean again
can we get clean again?
i walk home with you and the mood you're born in to sometimes you let me in
and i take it on the chin.  i can't get clean again.  i can't get clean again.
she takes a drink and then she waits the alcohol it permeates
and soon the cells give way and cancels out the day and i spin around

I can't keep it all together
I know, i know i know i know i know i know, i can't keep it all together
and the siren's song that is your madness holds a trugh i can't escape
all alone on your face

every glamorous sunrise throws the planets out of line
a star sign out of whack.  a fraudulent zodiac.
and the god of wine comes crashing through the headlights of the car
and it took you farther then you ever thought you'd go
i can't get back again.  we can't get back again.
and the god of wine is crouched down in your room you let me down i said it
now i'm going down, you're not even around and i spin around

I can't keep it all together
I know, i know i know i know i know i know, i can't keep it all together
and there's a memory of a window looking through i see you
searching for something i could never give you
there's someone who understands you more than i do
there's a silence i can't escape all alone on your face

the outro is
-----------------------------------------------|
---5-----5-------------------------------------|
-----2-----2---over-and-over-again-------------|
-----------------------------------------------|
-----------------------------------------------|
-----------------------------------------------|


============================================================================

NOTE: In my opinion, this is probably the best album ever produced.
      Which is why there had to be an album on the net. I'm not gonna take
      credit for the tabs, I just pasted them all together for people
      who want the album. Anyway, if you like "blue" it's coming this way.
      Well... ...ENJOY!!!

                         -Asa
Related for Third Eye Blind tab