Guitaretab - guitar tabs
Song name
# A B C D E F G H I J K L M N O P Q R S T U V W X Y Z

Third Eye Blind - My Time In Exile tab

Artist: 3eb
Song: My time in exile
Album: DVD 'Hiding Out'
Tabbed by: Silf
Tuning: Drop D

Ive been looking for a tab for this forever so i just figured it out as best i could and 
the most part it sounds pretty decent, any updates would be appreciated tho. Awsome song.

INTRO/VERSE:

e|------0--0-0-2-2-2-0-----|
B|------3--3------------3~-|
G|------2--2------------2--|    ...basically the verse is just variations of D
D|-----(0)(0)~---------(0)-|
A|-----(0)(0)~---------(0)-|
D|-----(0)(0)~---------(0)-|

CHORUS:

Bm           A
Oh...We have grown
           E
Maybe Iíve overstayed awhile
   G
In my time in exile and
Bm            A
Oh...Time has flown
        E
And the only thing I've learned
         G
I want a life now of my own
[ Tab from: http://www.guitaretab.com/t/third-eye-blind/93101.html ]
All the Chords are the same each time the course comes around.

As for the "...more than chit-chat we listen to the streets" bit its pretty much the 
as the verse, a little more creative with the hammer-ons and timing and stuff though.

SOLO:

its not very long but comes in at about 1:56

e|--0-3-2-----2-3/5-3-2-2h3p2--------2-3/5--3-2~-222h3p2-0~----|
B|--------3-------------------3-0~---3-3/5--3-3~-333-3-3-3~----|
G|-------------------------------------------------------------|
D|-------------------------------------------------------------|
A|-------------------------------------------------------------|
E|-------------------------------------------------------------|


Thats about it...it sounds best when you play the open chords from the chorus as follows 
drop d:

Bm: x24432
A:  x02220
E:  222000
G:  55500x
Related for My Time In Exile tab