Song name
# A B C D E F G H I J K L M N O P Q R S T U V W X Y Z

Third Strike - Lisa tab

Artist- Third Strike
Song- Lisa
Tabber- Iconoclast
Tuning- Drop D (DADGBE)

Verse
---------------------------------------------
---------------------------------------------
-----------------0---------------------------
-----------0---7---7---------0-------0-------
-------6-------------5-----3-------6---6---0-
-0-0-0---0---0---------0-1-----1-4-------4---

Leading into Chorus 
--------------------------------
--------------------------------
--------------------------------
--------------------------------
--------------------------------
-0-0-*3-------------------------

Chorus (repeat each many many times)
--------------------|--------------
--------------------|--------------
--------------------|--------------
-5--1--4------------|------------0-
-5--1--4------------|-ends with--0-
-5--1--4------------|------------0-

Bridge (Guitar 1)
----------------------------
----------------------------
----------------------------
---7-5-4-4h5-----7-8-7-8-7--
----------------------------
-0------------5------------

Bridge (Guitar 2)
------------------------------
------------------------------
---7-5-3-2-2h3-----5-7-5-7-5--
------------------------------
------------------------------
-0-------------5------------

Outro (Guitar 1)
----------------------------
----------------------------
----------------------------
---7---5---4-----7--8---7---
----------------------------
-0---0---0---0-5--0---0-----

Outro (Guitar 2)
----------------------------
----------------------------
---7--5--2-----5--7--5------
----------------------------
----------------------------
-0--0--0---0-5--0---0-------

Enjoy.



Tap to rate this tab
 
# A B C D E F G H I J K L M N O P Q R S T U V W X Y Z