Song name
# A B C D E F G H I J K L M N O P Q R S T U V W X Y Z

Third Strike - Redemption tab

Artist- Third Strike
Song- Redemption
Tabber- Iconoclast
Tuning- Drop D (DADGBE)

Intro and Chorus (intro is clean with phaser, chorus is distorted)
-------------------------------------------------
-------------------------------------------------
-------------------------------------------------
-6-6-6-6-6-6-6-6-6-6-6-6h7-7-7-7-7-7-7-7-7-7-7---
-4-4-4-4-4-4-4-4-4-4-4-4-4-4-4-4-4-4-4-4-4-4-4---
-4-4-4-4-4-4-4-4-4-4-4-4-4-4-4-4-4-4-4-4-4-4-4---

------------------------------------------------
------------------------------------------------
------------------------------------------------
-6-6-6-6-6-6-6-6-6-6-6-6h7-7-7-7-7-7-7-7-7-7-7--
-5-5-5-5-5-5-5-5-5-5-5-5-5-5-5-5-5-5-5-5-5-5-5--
-0-0-0-0-0-0-0-0-0-0-0-0-0-0-0-0-0-0-0-0-0-0-0--

Verse (clean with phaser)
------------------------------------------------
------------------------------------------------
--------------------------------6---------------
-7-6-7--7-6-7--7-6-7--7-6---7h6-----------------
-4-4-4--4-4-4--4-4-4--4-4-----------------------
-4---4--4---4--4---4--4---0---------------------

Bridge (1:59) (distorted)
-------------------------------------------------------------
-------------------------------------------------------------
-------------------------------------------------------------
-4-0-0-4-0-0-*3-*3-*3-*3-4-0-0-4-0-0-*3-*3-*3-*3-4-0-0-4-0-0-
-4-0-0-4-0-0-*3-*3-*3-*3-4-0-0-4-0-0-*3-*3-*3-*3-4-0-0-4-0-0-
-4-0-0-4-0-0-*3-*3-*3-*3-4-0-0-4-0-0-*3-*3-*3-*3-4-0-0-4-0-0-

------------------------------------------------
------------------------------------------------
------------------------------------------------
-*3-*3-*3-*3-6----------------------------------
-*3-*3-*3-*3-4----------------------------------
-*3-*3-*3-*3-4----------------------------------

(2:10) (clean with phaser)
---------------------------------------------------------------------
---------------------------------------------------------------------
---------------------------------------------------------------------
---------6----------------7----------------11----------------7-------
-----4-4---4-----------5-5--5----------9-9----9----------5-5---5-----
-4-4---------4-4--0-0---------0-0--9-9----------9-9--5-5---------5-5-
Tap to rate this tab
 
# A B C D E F G H I J K L M N O P Q R S T U V W X Y Z