Song name
# A B C D E F G H I J K L M N O P Q R S T U V W X Y Z

Third Strike - All Lies tab

Artist- Third Strike
Song- All Lies
Tabber- Iconoclast
Tuning- Drop D (DADGBE)

Verse (palm muted)
-------------------------------------------
-------------------------------------------
-------------------------------------------
-------------------------------------------
-------------------------------------------
-0-6p0-0-0-0-6p0-0-0-0-6p0-0-0-0-6p0-0-3p0-

Chorus
------------------------------------------------------------
------------------------------------------------------------
-7------------------9----------------3-----------------7----
-3------------------5----------------2-----------------3----
-5------------------7----------------1-----------------5----
---0-0-3h5-0-3h5-0----0-0-3h5-0-3h5----0-0-3h5-0-3h5--------

---------------------------------
---------------------------------
---------------------------------
---------------------------------
---------------------------------
-0-0-3h5-0-3h5-0-----------------

Bridge 1 (1:27)
-----------------------------
-----------------------------
-----------------------------
-----------------------------
-----------------------------
-0-0-0-0-0-0-0-0-0-0-0-3p0-0-

Bridge 2 (1:41)- not sure about these chords
-------------------------------------
---3-----3---3-----------------------
---2-----2---2-----------------------
---2-----2---2-----------------------
---2-----2---2-----------------------
-0-----0---0-------------------------



Outro
---------------------------------
---------------------------------
---------------------------------
-0-----0-0-----0-1-0-------------
-0-----0-0-----0-1-0-------------
-0-----0-0-----0-1-0-------------

Enjoy.
Tap to rate this tab
 
# A B C D E F G H I J K L M N O P Q R S T U V W X Y Z