Song name
# A B C D E F G H I J K L M N O P Q R S T U V W X Y Z

Third World Bliss - One Last Goodbye tab

One Last Goodbye (correction)
Words and Music by: Jason 
(c) 2003 TWB


Opening Riff part 1  (play 2x) 
|----------------------------------------------------------------
|----------------------------------------------------------------
|----------------------------------------------------------------
|----------------------------------------------------------------
|---11---11---11---11--7---7---7---7----14----14----14----14-----
|--9----9----9----9---5---5---5---5---12----12----12----12-------

(cont.)
A--9---9---9---9---------------------
E-7---7---7---7---------------------

Opening Riff part 2 (after 2nd time of riff p.1) 
|---------------------------------------------------------------
|---------------------------------------------------------------
|---------------------------------------------------------------
|---------------------------------------------------------------
|-99999999--11-11-11--777--14-14-14--999------------------------
|-77777777---9--9--9--555--12-12-12--777------------------------
           |----------------------------| play 2x

Main Riff (Palm muted except for 9/7 on the 4th time) Play 4x 
|----------------------------------------------------------------
|----------------------------------------------------------------
|----------------------------------------------------------------
|----------------------------------------------------------------
|-11-11-11-11-11-11-777777-14-14-14-14-14-14-999999--------------
|--9--9--9--9--9--9-555555-12-12-12-12-12-12-777777--------------

Chorus
(Play Main Riff again but only 2x and completely open)

Break (play 2x then go back to chorus open)
|----------------------------------------------------------------
|----------------------------------------------------------------
|----------------------------------------------------------------
|----------------------------------------------------------------
|-11-11-11-11-11-----77777-----14-14-14-14-14-----99999----------
|--9--9--9--9--9-----55555-----12-12-12-12-12-----77777----------

That's pretty much it.  Let me know if you have questions.
Tap to rate this tab
# A B C D E F G H I J K L M N O P Q R S T U V W X Y Z