Song name
# A B C D E F G H I J K L M N O P Q R S T U V W X Y Z

Thirsty Merc - In The Summertime tab

Song:      In The Summertime
Artist:    Thirsty Merc
Tabbed by: Erkle7 (erkle7@hotmail.com)

Feel free to comment on this tab. It's all there 
Thanks to Mark Simons for the Intro


Intro
e---------------------|
B---------------------|
G------6/77777-7------|
D-2-2--6/77777-7------|  x 4
A-2-2--4/55555-5-7-5--|
E-0-0-----------------|


Verse
e---------------------|
B---------------------|
G---------------------|
D---------------------|   x 7
A---------------5h7---|
E-0-0-400500607-------|

e------------------|
B------------------|
G------------------|
D------------------|   x 1
A------------------|
E-0-0-400500607----|

e---------------------|
B---------------------|
G---------------------|
D---------------------|   x 3
A---------------5h7---|
E-0-0-400500607-------|

e------------------|
B------------------|
G------------------|
D------------------|   x 1
A------------------|
E-0-0-400500607----|


Prechorus 0:50
e-------------------------------------|
B-------------------------------------|
G-------------------------------------|
D-4-4-x-x-4-x-4--xxxx-7-7-x-x-7-x-7---|   x 1
A-4-4-x-x-4-x-4--xxxx-7-7-x-x-7-x-7---|
E-2-2-x-x-2-x-2--xxxx-5-5-x-x-5-x-5---|

e-------------------------------------|
B-------------------------------------|
G-------------------------------------|
D-4-4-x-x-4-x-4--xxxx-77777779--------|   x 1
A-4-4-x-x-4-x-4--xxxx-77777779--------|
E-2-2-x-x-2-x-2--xxxx-55555557--------|
 

Chorus 1:00                            
e----------------------------|--------------------------------|    
B----------------------------|--------------------------------|     
G-------66666----------------|--------------------------------|      
D-22222-66666--77777--22222--|--4444-4444/6-7777777--99999999-|       
A-22222-44444--77777--22222--|--4444-4444/6-7777777--99999999-|         
E-00000--------55555--00000--|--2222-2222/4-5555555--77777777-|             
 		      
e----------------------------|----------------------------|    
B----------------------------|----------------------------|     
G-------66666----------------|----------------------------|      
D-22222-66666--77777--22222--|--4444-4444/6-7777777--9----|           
A-22222-44444--77777--22222--|--4444-4444/6-7777777--9----|            
E-00000--------55555--00000--|--2222-2222/4-5555555--7----|          


Intro
e---------------------|
B---------------------|
G------6/77777-7------|
D-2-2--6/77777-7------|  x 2
A-2-2--4/55555-5-7-5--|
E-0-0-----------------|


Verse 1:32
e---------------------|
B---------------------|
G---------------------|
D---------------------|   x 3
A---------------5h7---|
E-0-0-400500607-------|

e------------------|
B------------------|
G------------------|
D------------------|   x 1
A------------------|
E-0-0-400500607----|


Prechorus 1:45
e-------------------------------------|
B-------------------------------------|
G-------------------------------------|
D-4-4-x-x-4-x-4--xxxx-7-7-x-x-7-x-7---|   x 1
A-4-4-x-x-4-x-4--xxxx-7-7-x-x-7-x-7---|
E-2-2-x-x-2-x-2--xxxx-5-5-x-x-5-x-5---|

e-------------------------------------|
B-------------------------------------|
G-------------------------------------|
D-4-4-x-x-4-x-4--xxxx-77777779--------|   x 1
A-4-4-x-x-4-x-4--xxxx-77777779--------|
E-2-2-x-x-2-x-2--xxxx-55555557--------|


Chorus 1:57                            
e----------------------------|--------------------------------|    
B----------------------------|--------------------------------|     
G-------66666----------------|--------------------------------|      
D-22222-66666--77777--22222--|--4444-4444/6-7777777--99999999-|   x 2       
A-22222-44444--77777--22222--|--4444-4444/6-7777777--99999999-|         
E-00000--------55555--00000--|--2222-2222/4-5555555--77777777-|             
 	
	      
Solo 2:22
The Solo is played with the intro in the background
e-16^-12-19^-12-12-10-12--|-16^-12-19^-12/10-9-9-7----|
B-------------------------|---------------------------|
G-------------------------|---------------------------|
D-------------------------|---------------------------|
A-------------------------|---------------------------|
E-------------------------|---------------------------|

e-16^-12-19^-12-12-10-12--|-16-16^-12-10-9---7/6------|
B-------------------------|---------------------------|
G-------------------------|---------------------------|
D-------------------------|---------------------------|
A-------------------------|---------------------------|
E-------------------------|---------------------------|


Bridge 2:34
e---------------------------------------|
B---------------------------------------|
G---------------------------------------|
D------7--------4---------77777779------|   x 1
A------7--------4---------77777779------|
E------5--------2---------55555557------|


Chorus 2:50                            
e----------------------------|--------------------------------|    
B----------------------------|--------------------------------|     
G-------66666----------------|--------------------------------|      
D-22222-66666--77777--22222--|--4444-4444/6-7777777--99999999-|   x 3       
A-22222-44444--77777--22222--|--4444-4444/6-7777777--99999999-|         
E-00000--------55555--00000--|--2222-2222/4-5555555--77777777-|  

e----------------------------|---------------------------|    
B----------------------------|---------------------------|     
G-------66666----------------|---------------------------|      
D-22222-66666--77777--22222--|--4444-4444/6-7777777--9---|   x 2       
A-22222-44444--77777--22222--|--4444-4444/6-7777777--9---|         
E-00000--------55555--00000--|--2222-2222/4-5555555--7---|  

e----------------------------|---------------------------|    
B----------------------------|---------------------------|     
G-------66666----------------|---------------------------|      
D-22222-66666--77777--22222--|--4444-4444/6-7777777--9---|   x 1       
A-22222-44444--77777--22222--|--4444-4444/6-7777777--9---|         
E-00000--------55555--00000--|--2222-2222/4-5555555--7---|
                                \________x2_______/ 

Intro
e----------------------|
B----------------------|
G------6/77777---------|
D-2-2--6/77777-----2---|  x 1
A-2-2--4/55555-----2---|
E-0-0--------------0---|
                    ^fade out last chord
Tap to rate this tab
# A B C D E F G H I J K L M N O P Q R S T U V W X Y Z