Song name
# A B C D E F G H I J K L M N O P Q R S T U V W X Y Z

Thirsty Merc - Katie Q tab

Help us improve GuitareTab! Take a short survey!
-------------------------------------------------------------------------------
			     Katie Q Solo- Thirsty Merc
-------------------------------------------------------------------------------
Tabbed by: rangariffic12
Email: rangariffic12@hotmail.com

Tuning: standard

e|---------------------------------------------------------------------
B|--8-8-6-8-----------------------------------------------------------|
G|----------7-7-10-12-10----------------------------------------------|
D|-----------------------11-10---10-10-8-10-8-8-10-11-10-8------------|	X2
A|---------------------------------------------------------8-10-------|
E|--------------------------------------------------------------------|


Related for Katie Q tab