Song name
# A B C D E F G H I J K L M N O P Q R S T U V W X Y Z

Thirsty Merc - Emancipate Myself tab

Help us improve GuitareTab! Take a short survey!
----------------------------------------------------------------------------
		     Emancipate Myself - Thirsty Merc
----------------------------------------------------------------------------
Tabbed by: zaccy
Email: big_zaccy_madden@hotmail.com

Tuning: E Tuning (EADGBe)

This is from the awesome Aussie band Thirsty Merc. Its pretty accurate.

Here we go...

VERSES:
E|------------------------------------------------------------------|
B|------------------------------------------------------------------|
G|------------------------------------------------------------------|
D|-9-9-9-9-9-9-9-9-9-9-9-9-7-7-7-7-4-4-4-4-4-4-4-4-6--6-6-6-6-6-7-6-|
A|-7-7-7-7-6-6-6-6-5-5-5-5-4-4-4-4-3-3-3-3-3-3-3-3-7--7-7-7-7-7-7-7-|
E|------------------------------------------------------------------|

1ST CHORUS:
    E5                F#5               A5       B5       C5
E|---------------------------------------------------------------|
B|---------------------------------------------------------------|
G|---------------------------------------------------------------|
D|-9-9-9-9--9-9-9-9--4-4-4-4--4-4-4-4--7-7-7-7--9-9-9-9--10------|
A|-7-7-7-7--7-7-7-7--4-4-4-4--4-4-4-4--7-7-7-7--9-9-9-9--10------|
E|-0-0-0-0--0-0-0-0--2-2-2-2--2-2-2-2--5-5-5-5--7-7-7-7--8-------|

MAIN CHORUS:
    E5                F#5               A5       B5       C5
E|-------------------------------------------------------------------------|
B|-------------------------------------------------------------------------|
G|-------------------------------------------------------------------------|
D|-9-9-9-9-9-9-9-9-4-4-4-4-4-4-4-4-7-7-7-7-9-9-9-9-10-10-10-10-10-10-10-10-|
A|-7-7-7-7-7-7-7-7-4-4-4-4-4-4-4-4-7-7-7-7-9-9-9-9-10-10-10-10-10-10-10-10-|
E|-0-0-0-0-0-0-0-0-2-2-2-2-2-2-2-2-5-5-5-5-7-7-7-7--8--8--8--8--8--8--8--8-|

BRIDGE CHORDS:
    F#5  F5  E5    F#5   F5   B5
E|--------------------------------|
B|--------------------------------|
G|---------------------------4----|
D|-4----3---2-----4-----3----4----|
A|-4----3---2-----4-----3----2----|
E|-2----1---0-----2-----1---------|

BRIDGE LEAD:
E|---12---12----12---12-------|
B|------------------------12--|
G|-9----9-----9----9----9-----|
D|----------------------------| (x 3)
A|----------------------------|
E|----------------------------|

E|----------------------------|
B|----12---12----12~~~--------|
G|----------------------------|
D|-9-----9----9---------------|
A|----------------------------|
E|----------------------------|


| /  slide up
| \  slide down
| h  hammer-on
| p  pull-off
| ~  vibrato
| +  harmonic
| x  Mute note
===========================================================================

Enjoy!
Related for Emancipate Myself tab