Song name
# A B C D E F G H I J K L M N O P Q R S T U V W X Y Z

Thirsty Merc - I Wish Somebody Would Build A Bridge So I Can Get Over Myself tab

--------------------------------------------------------------------------------------
Thirsty Merc - I Wish Somebody Would Build A Bridge (So I Can Get Over Myself)
--------------------------------------------------------------------------------------

Verse:
e||---------------------------------------------------------------------------|
B||o--------------------------------------------------------------------------|
G||---------------------------------------------------------------------------|
D||---7-7-7---7---7-7-7---7---7-7-7---7---7-7-7---7---5-5-5---5---5-5-5---5---|
A||o--7-7-7---7---7-7-7---7---7-7-7---7---7-7-7---7---5-5-5---5---5-5-5---5---|
E||---5-5-5---5---5-5-5---5---5-5-5---5---5-5-5---5---3-3-3---3---3-3-3---3---|
PM    ^ ^ ^       ^ ^ ^       ^ ^ ^       ^ ^ ^       ^ ^ ^       ^ ^ ^       

e||---------------------------------------------------------------------------|
B||--------------------------------------------------------------------------o|
G||---------------------------------------------------------------------------|
D||---5-5-5---5---5-5-5---5---3-3-3---3---3-3-3---3---3-3-3---3---3-3-3---3---|
A||---5-5-5---5---5-5-5---5---3-3-3---3---3-3-3---3---3-3-3---3---3-3-3---3--o|
E||---3-3-3---3---3-3-3---3---1-1-1---1---1-1-1---1---1-1-1---1---1-1-1---1---|
PM    ^ ^ ^       ^ ^ ^       ^ ^ ^       ^ ^ ^       ^ ^ ^       ^ ^ ^       

e||---------------------------------------------------------------------------|
B||o--------------------------------------------------------------------------|
G||---------------------------------------------------------------------------|
D||---8-8-8---8---8-8-8---8---8-8-8---8---8-8-8---8---6-6-6---6---6-6-6---6---|
A||o--8-8-8---8---8-8-8---8---8-8-8---8---8-8-8---8---6-6-6---6---6-6-6---6---|
E||---6-6-6---6---6-6-6---6---6-6-6---6---6-6-6---6---4-4-4---4---4-4-4---4---|
PM    ^ ^ ^       ^ ^ ^       ^ ^ ^       ^ ^ ^       ^ ^ ^       ^ ^ ^       

e||---------------------------------------------------------------------------|
B||---------------------------------------------------------------------------|
G||---------------------------------------------------------------------------|
D||---6-6-6---6---6-6-6---6---4-4-4---4---4-4-4---4---4-4-4---4---4-4-4---4---|
A||---6-6-6---6---6-6-6---6---4-4-4---4---4-4-4---4---4-4-4---4---4-4-4---4---|
E||---4-4-4---4---4-4-4---4---2-2-2---2---2-2-2---2---2-2-2---2---2-2-2---2---|
PM    ^ ^ ^       ^ ^ ^       ^ ^ ^       ^ ^ ^       ^ ^ ^       ^ ^ ^       

e||---------------------------------------------------|
B||--------------------------------------------------o|
G||---------------------------------------------------|
D||---2-2-2---2---2-2-2---2---2-2-2---2---2-2-2---2---|
A||---2-2-2---2---2-2-2---2---2-2-2---2---2-2-2---2--o|
E||---0-0-0---0---0-0-0---0---0-0-0---0---0-0-0---0---|
PM    ^ ^ ^       ^ ^ ^       ^ ^ ^       ^ ^ ^


Chorus:
e||---------------------------------------------------------------------------|
B||---------------------------------------------------------------------------|
G||---------------------------------------------------------------------------|
D||---7-7-7-7-7-7-7-7---9-9-9-9-9-9-9-9---5-5-5-5-5-5-5-5---3-3-3-3-3-3-3-3---|
A||---7-7-7-7-7-7-7-7---9-9-9-9-9-9-9-9---5-5-5-5-5-5-5-5---3-3-3-3-3-3-3-3---|
E||---5-5-5-5-5-5-5-5---7-7-7-7-7-7-7-7---3-3-3-3-3-3-3-3---1-1-1-1-1-1-1-1---|

e||--------------------------------------------------------------------------|
B||--------------------------------------------------------------------------|
G||--------------------------------------------------------------------------|
D||---2-2-2-2-2-2-2-2-2-2-2-2-2-2-2-2---4-4-4-4-4-4-4-4---6--6--6--6--6--6---|
A||---2-2-2-2-2-2-2-2-2-2-2-2-2-2-2-2---4-4-4-4-4-4-4-4---6--6--6--6--6--6---|
E||---0-0-0-0-0-0-0-0-0-0-0-0-0-0-0-0---2-2-2-2-2-2-2-2---4--4--4--4--4--4---|


Verse:
e||---------------------------------------------------------------------------|
B||o--------------------------------------------------------------------------|
G||---------------------------------------------------------------------------|
D||---7-7-7---7---7-7-7---7---7-7-7---7---7-7-7---7---5-5-5---5---5-5-5---5---|
A||o--7-7-7---7---7-7-7---7---7-7-7---7---7-7-7---7---5-5-5---5---5-5-5---5---|
E||---5-5-5---5---5-5-5---5---5-5-5---5---5-5-5---5---3-3-3---3---3-3-3---3---|
PM    ^ ^ ^       ^ ^ ^       ^ ^ ^       ^ ^ ^       ^ ^ ^       ^ ^ ^       

e||---------------------------------------------------------------------------|
B||--------------------------------------------------------------------------o|
G||---------------------------------------------------------------------------|
D||---5-5-5---5---5-5-5---5---3-3-3---3---3-3-3---3---3-3-3---3---3-3-3---3---|
A||---5-5-5---5---5-5-5---5---3-3-3---3---3-3-3---3---3-3-3---3---3-3-3---3--o|
E||---3-3-3---3---3-3-3---3---1-1-1---1---1-1-1---1---1-1-1---1---1-1-1---1---|
PM    ^ ^ ^       ^ ^ ^       ^ ^ ^       ^ ^ ^       ^ ^ ^       ^ ^ ^       

e||---------------------------------------------------------------------------|
B||o--------------------------------------------------------------------------|
G||---------------------------------------------------------------------------|
D||---8-8-8---8---8-8-8---8---8-8-8---8---8-8-8---8---6-6-6---6---6-6-6---6---|
A||o--8-8-8---8---8-8-8---8---8-8-8---8---8-8-8---8---6-6-6---6---6-6-6---6---|
E||---6-6-6---6---6-6-6---6---6-6-6---6---6-6-6---6---4-4-4---4---4-4-4---4---|
PM    ^ ^ ^       ^ ^ ^       ^ ^ ^       ^ ^ ^       ^ ^ ^       ^ ^ ^       

e||---------------------------------------------------------------------------|
B||---------------------------------------------------------------------------|
G||---------------------------------------------------------------------------|
D||---6-6-6---6---6-6-6---6---4-4-4---4---4-4-4---4---4-4-4---4---4-4-4---4---|
A||---6-6-6---6---6-6-6---6---4-4-4---4---4-4-4---4---4-4-4---4---4-4-4---4---|
E||---4-4-4---4---4-4-4---4---2-2-2---2---2-2-2---2---2-2-2---2---2-2-2---2---|
PM    ^ ^ ^       ^ ^ ^       ^ ^ ^       ^ ^ ^       ^ ^ ^       ^ ^ ^       

e||---------------------------------------------------|
B||--------------------------------------------------o|
G||---------------------------------------------------|
D||---2-2-2---2---2-2-2---2---2-2-2---2---2-2-2---2---|
A||---2-2-2---2---2-2-2---2---2-2-2---2---2-2-2---2--o|
E||---0-0-0---0---0-0-0---0---0-0-0---0---0-0-0---0---|
PM    ^ ^ ^       ^ ^ ^       ^ ^ ^       ^ ^ ^


Chorus:
e||---------------------------------------------------------------------------|
B||---------------------------------------------------------------------------|
G||---------------------------------------------------------------------------|
D||---7-7-7-7-7-7-7-7---9-9-9-9-9-9-9-9---5-5-5-5-5-5-5-5---3-3-3-3-3-3-3-3---|
A||---7-7-7-7-7-7-7-7---9-9-9-9-9-9-9-9---5-5-5-5-5-5-5-5---3-3-3-3-3-3-3-3---|
E||---5-5-5-5-5-5-5-5---7-7-7-7-7-7-7-7---3-3-3-3-3-3-3-3---1-1-1-1-1-1-1-1---|

e||--------------------------------------------------------------------------|
B||--------------------------------------------------------------------------|
G||--------------------------------------------------------------------------|
D||---2-2-2-2-2-2-2-2-2-2-2-2-2-2-2-2---4-4-4-4-4-4-4-4---6--6--6--6--6--6---|
A||---2-2-2-2-2-2-2-2-2-2-2-2-2-2-2-2---4-4-4-4-4-4-4-4---6--6--6--6--6--6---|
E||---0-0-0-0-0-0-0-0-0-0-0-0-0-0-0-0---2-2-2-2-2-2-2-2---4--4--4--4--4--4---|

e||-----------------------------------------------------------------------------|
B||-----------------------------------------------------------------------------|
G||-----------------------------------------------------------------------------|
D||---7-7-7-7-7-7-7-7---9-9-9-9-9-9-9-9---5-5-5-5-5-5-5-5---3---3---3---3---3---|
A||---7-7-7-7-7-7-7-7---9-9-9-9-9-9-9-9---5-5-5-5-5-5-5-5---3---3---3---3---3---|
E||---5-5-5-5-5-5-5-5---7-7-7-7-7-7-7-7---3-3-3-3-3-3-3-3---1---1---1---1---1---|

e||--------------------------------------------------------------------------|
B||--------------------------------------------------------------------------|
G||--------------------------------------------------------------------------|
D||---2-2-2-2-2-2-2-2-2-2-2-2-2-2-2-2---4-4-4-4-4-4-4-4---6--6--6--6--6--6---|
A||---2-2-2-2-2-2-2-2-2-2-2-2-2-2-2-2---4-4-4-4-4-4-4-4---6--6--6--6--6--6---|
E||---0-0-0-0-0-0-0-0-0-0-0-0-0-0-0-0---2-2-2-2-2-2-2-2---4--4--4--4--4--4---|


Solo:
e||---7-9-9-9-9-7-9-9-9-9-9-7-9-9-9-9-9-9-9-9-9-7-5-4-3-
B||-----------------------------------------------------
G||-----------------------------------------------------
D||-----------------------------------------------------
A||-----------------------------------------------------
E||-----------------------------------------------------

too lazy to work out the rest of it but i think thats the start... probly wrong tho... 
if ya get it please email it to me

Verse:
e||-------------------------------------|
B||-------------------------------------|
G||-------------------------------------|
D||---7-----5-----3-----7-----5-----3---|
A||---7-----5-----3-----7-----5-----3---|
E||---5-----3-----1-----5-----3-----1---|

e||---------------------------------------------------------------------------|
B||o--------------------------------------------------------------------------|
G||---------------------------------------------------------------------------|
D||---8-8-8---8---8-8-8---8---8-8-8---8---8-8-8---8---6-6-6---6---6-6-6---6---|
A||o--8-8-8---8---8-8-8---8---8-8-8---8---8-8-8---8---6-6-6---6---6-6-6---6---|
E||---6-6-6---6---6-6-6---6---6-6-6---6---6-6-6---6---4-4-4---4---4-4-4---4---|
PM    ^ ^ ^       ^ ^ ^       ^ ^ ^       ^ ^ ^       ^ ^ ^       ^ ^ ^       

e||---------------------------------------------------------------------------|
B||---------------------------------------------------------------------------|
G||---------------------------------------------------------------------------|
D||---6-6-6---6---6-6-6---6---4-4-4---4---4-4-4---4---4-4-4---4---4-4-4---4---|
A||---6-6-6---6---6-6-6---6---4-4-4---4---4-4-4---4---4-4-4---4---4-4-4---4---|
E||---4-4-4---4---4-4-4---4---2-2-2---2---2-2-2---2---2-2-2---2---2-2-2---2---|
PM    ^ ^ ^       ^ ^ ^       ^ ^ ^       ^ ^ ^       ^ ^ ^       ^ ^ ^       


e||---------------------------------------------------|
B||--------------------------------------------------o|
G||---------------------------------------------------|
D||---2-2-2---2---2-2-2---2---2-2-2---2---2-2-2---2---|
A||---2-2-2---2---2-2-2---2---2-2-2---2---2-2-2---2--o|
E||---0-0-0---0---0-0-0---0---0-0-0---0---0-0-0---0---|
PM    ^ ^ ^       ^ ^ ^       ^ ^ ^       ^ ^ ^


Chorus:
e||---------------------------------------------------------------------------|
B||---------------------------------------------------------------------------|
G||---------------------------------------------------------------------------|
D||---7-7-7-7-7-7-7-7---9-9-9-9-9-9-9-9---5-5-5-5-5-5-5-5---3-3-3-3-3-3-3-3---|
A||---7-7-7-7-7-7-7-7---9-9-9-9-9-9-9-9---5-5-5-5-5-5-5-5---3-3-3-3-3-3-3-3---|
E||---5-5-5-5-5-5-5-5---7-7-7-7-7-7-7-7---3-3-3-3-3-3-3-3---1-1-1-1-1-1-1-1---|

e||--------------------------------------------------------------------------|
B||--------------------------------------------------------------------------|
G||--------------------------------------------------------------------------|
D||---2-2-2-2-2-2-2-2-2-2-2-2-2-2-2-2---4-4-4-4-4-4-4-4---6--6--6--6--6--6---|
A||---2-2-2-2-2-2-2-2-2-2-2-2-2-2-2-2---4-4-4-4-4-4-4-4---6--6--6--6--6--6---|
E||---0-0-0-0-0-0-0-0-0-0-0-0-0-0-0-0---2-2-2-2-2-2-2-2---4--4--4--4--4--4---|

e||-----------------------------------------------------------------------------|
B||-----------------------------------------------------------------------------|
G||-----------------------------------------------------------------------------|
D||---7-7-7-7-7-7-7-7---9-9-9-9-9-9-9-9---5-5-5-5-5-5-5-5---3---3---3---3---3---|
A||---7-7-7-7-7-7-7-7---9-9-9-9-9-9-9-9---5-5-5-5-5-5-5-5---3---3---3---3---3---|
E||---5-5-5-5-5-5-5-5---7-7-7-7-7-7-7-7---3-3-3-3-3-3-3-3---1---1---1---1---1---|

e||--------------------------------------------------------------------------|
B||--------------------------------------------------------------------------|
G||--------------------------------------------------------------------------|
D||---2-2-2-2-2-2-2-2-2-2-2-2-2-2-2-2---4-4-4-4-4-4-4-4---5--5--5--5--5--5---|
A||---2-2-2-2-2-2-2-2-2-2-2-2-2-2-2-2---4-4-4-4-4-4-4-4---5--5--5--5--5--5---|
E||---0-0-0-0-0-0-0-0-0-0-0-0-0-0-0-0---2-2-2-2-2-2-2-2---3--3--3--3--3--3---|

e||---------------------------------------------------------------------------|
B||---------------------------------------------------------------------------|
G||---------------------------------------------------------------------------|
D||---7-7-7-7-7-7-7-7---9-9-9-9-9-9-9-9---5-5-5-5-5-5-5-5---3-3-3-3-3-3-3-3---|
A||---7-7-7-7-7-7-7-7---7-7-7-7-7-7-7-7---5-5-5-5-5-5-5-5---3-3-3-3-3-3-3-3---|
E||---5-5-5-5-5-5-5-5---7-7-7-7-7-7-7-7---3-3-3-3-3-3-3-3---1-1-1-1-1-1-1-1---|

e||-------------------------------------------------------------------------|
B||-------------------------------------------------------------------------|
G||-------------------------------------------------------------------------|
D||---2-2-2-2-2-2-2-2-2-2-2-2-2-2-2-2---4-4-4-4-4-4-4-4---7-7-7-7-7-7-7-7---|
A||---2-2-2-2-2-2-2-2-2-2-2-2-2-2-2-2---4-4-4-4-4-4-4-4---7-7-7-7-7-7-7-7---|
E||---0-0-0-0-0-0-0-0-0-0-0-0-0-0-0-0---2-2-2-2-2-2-2-2---5-5-5-5-5-5-5-5---|


Outro:
e||-----------------------------------------------------------------------------|
B||-----------------------------------------------------------------------------|
G||-----------------------------------------------------------------------------|
D||---7-7-7-7-7-7-7-7---9-9-9-9-9-9-9-9---5-5-5-5-5-5-5-5---3---3---3---3---3---|
A||---7-7-7-7-7-7-7-7---9-9-9-9-9-9-9-9---5-5-5-5-5-5-5-5---3---3---3---3---3---|
E||---5-5-5-5-5-5-5-5---7-7-7-7-7-7-7-7---3-3-3-3-3-3-3-3---1---1---1---1---1---|

e||--------------------------------------------------------------------|
B||--------------------------------------------------------------------|
G||-------------------------------------5--5--5--5---7--7--7--7---9\---|
D||---2-2-2-2-2-2-2-2-2-2-2-2-2-2-2-2---5--5--5--5---5--5--5--5---9\---|
A||---2-2-2-2-2-2-2-2-2-2-2-2-2-2-2-2---3--3--3--3---5--5--5--5---7\---|
E||---0-0-0-0-0-0-0-0-0-0-0-0-0-0-0-0----------------------------------|
Tap to rate this tab
# A B C D E F G H I J K L M N O P Q R S T U V W X Y Z