Song name
# A B C D E F G H I J K L M N O P Q R S T U V W X Y Z

Thirsty Merc - Those Eyes tab

Those Eyes - Thirsty Merc

Album: Slideshows

The strum pattern is fairly basic and there are a few 'colour' chords thrown in every 
and then [ie maj7ths etc] but what I've put together is the basic chords arranged for one 
The guitar could possibly be tuned a half step down but this version is for standard... enjoy!

Intro/Verse
Track 1
     C5                         Eb7M                          Ab5
     E  E  E  E  E  E  E  E     E    E  E  E  E  E  E  E      E   E   E   E   E   E   E  
E
E||--------------------------|----------------------------|----------------------------------|
B||--------------------------|----------------------------|----------------------------------|
G||--5--5--5--5--5--5--5--5--|--7----7--7--7--7--7--7--7--|--13--13--13--13--13--13--13--13--|
D||--5--5--5--5--5--5--5--5--|--8----8--8--8--8--8--8--8--|--13--13--13--13--13--13--13--13--|
A||--3--3--3--3--3--3--3--3--|--6----6--6--6--6--6--6--6--|--11--11--11--11--11--11--11--11--|
E||--------------------------|----------------------------|----------------------------------|


   E   E   E   E   E   E   E   E
----------------------------------||
----------------------------------||
--13--13--13--13--13--13--13--13--||
--13--13--13--13--13--13--13--13--||
--11--11--11--11--11--11--11--11--||
----------------------------------||

Pre Chorus
     Ab                                      Ab
     W                   W                   W                   W
E||-------------------|-------------------|-------------------|-------------------||
B||-------------------|-------------------|-------------------|-------------------||
G||--5----------------|--L----------------|--5----------------|--L----------------||
D||--6----------------|--L----------------|--6----------------|--L----------------||
A||--6----------------|--L----------------|--6----------------|--L----------------||
E||--4----------------|--L----------------|--4----------------|--L----------------||

Chorus
     Eb5                                                    Bb5
     E   E  E  E  E  E  E  E     E  E  E  E  E  E  E  E     E   E  E  E  E  E  E  E
E||---------------------------|--------------------------|---------------------------|
B||---------------------------|--------------------------|---------------------------|
G||--8---8--8--8--8--8--8--8--|--8--8--8--8--8--8--8--8--|---------------------------|
D||--8---8--8--8--8--8--8--8--|--8--8--8--8--8--8--8--8--|--8---8--8--8--8--8--8--8--|
A||--6---6--6--6--6--6--6--6--|--6--6--6--6--6--6--6--6--|--8---8--8--8--8--8--8--8--|
E||---------------------------|--------------------------|--6---6--6--6--6--6--6--6--|


                             Ab5
  E  E  E  E  E  E  E  E     E   E  E  E  E  E  E  E     E  E  E  E  E  E  E  E
--------------------------|---------------------------|--------------------------||
--------------------------|---------------------------|--------------------------||
--------------------------|---------------------------|--------------------------||
--8--8--8--8--8--8--8--8--|--6---6--6--6--6--6--6--6--|--6--6--6--6--6--6--6--6--||
--8--8--8--8--8--8--8--8--|--6---6--6--6--6--6--6--6--|--6--6--6--6--6--6--6--6--||
--6--6--6--6--6--6--6--6--|--4---4--4--4--4--4--4--4--|--4--4--4--4--4--4--4--4--||

[Second time through the chorus, the pre bridge ending changes]

Last time through, second chorus leads into the bridge like this...
     Eb5                                           Bb5
     Q    Q    Q    Q       Q    Q    Q    Q       Q    Q    Q    Q       Q    Q    Q    Q
E||----------------------|----------------------|----------------------|----------------------|
B||----------------------|----------------------|----------------------|----------------------|
G||--8----8----8----8----|--8----8----8----8----|----------------------|----------------------|
D||--8----8----8----8----|--8----8----8----8----|--8----8----8----8----|--8----8----8----8----|
A||--6----6----6----6----|--6----6----6----6----|--8----8----8----8----|--8----8----8----8----|
E||----------------------|----------------------|--6----6----6----6----|--6----6----6----6----|


  Ab5                     C5          D/5+           Eb5
  Q    Q    Q    Q        Q     Q     Q     Q        Q     Q     Q     Q
----------------------|--------------------------|--------------------------||
----------------------|--------------------------|--------------------------||
----------------------|--------------------------|--------------------------||
--6----6----6----6----|--10----10----12----12----|--13----13----13----13----||
--6----6----6----6----|--10----10----13----13----|--13----13----13----13----||
--4----4----4----4----|---8-----8----10----10----|--11----11----11----11----||

Bridge
     B5                         Bb/5+                         Eb5
     E  E  E  E  E  E  E  E     E     E  E  E  E  E  E  E     E   E  E  E  E  E  E  E
E||--------------------------|-----------------------------|---------------------------|
B||--------------------------|-----------------------------|---------------------------|
G||--------------------------|-----------------------------|--8---8--8--8--8--8--8--8--|
D||--9--9--9--9--9--9--9--9--|--8-----8--8--8--8--8--8--8--|--8---8--8--8--8--8--8--8--|
A||--9--9--9--9--9--9--9--9--|--9-----9--9--9--9--9--9--9--|--6---6--6--6--6--6--6--6--|
E||--7--7--7--7--7--7--7--7--|--6-----6--6--6--6--6--6--6--|---------------------------|


  Bb5
  E   E  E  E  E  E  E  E
---------------------------||
---------------------------||
---------------------------||
--8---8--8--8--8--8--8--8--||
--8---8--8--8--8--8--8--8--||
--6---6--6--6--6--6--6--6--||


Duration Legend
---------------
W - whole
H - half
Q - quarter
E - 8th
S - 16th
T - 32nd
X - 64th
. - note dotted
|-n-|  - n-tuplets
L - Tie Beat

LYRICS [thanks to www.lyricsmania.com]
Theres something about you girl
A mystery
I can't put my finger on
just what it could be
But ever since you walked in
A different energy
He's taken my mind and heart away

And you're crossing the room
and you're talking to me
and now I know what I see

Those eyes are gonna make me fall
One look I want it all
Those eyes
You've got me hypnotised
Those eyes are gonna see me through
Pretty girl, I'm loving you
Those eyes
have got me hypnotised

I dont even know your name
Is this a dream
Cause right now I feel so high
I cant begin to explain
My temperatures rising wild
You're making me sweat
Tonight is a night I'll never forget

And you're crossin the room
And I'm talkin to you
And now I know that its true

Those eyes are gonna make me fall
One look I want it all
Those eyes
You've got me hypnotised
Those eyes are gonna see me through
Pretty girl, I'm loving you
Those eyes
have got me hypnotised

Hey girl, its now or never
Those eyes are gonna last forever more

And you're crossing the room
And you're one step away
And I'm looking at you
And my hearts in a daze
What more can I say

Those eyes are gonna make me fall
One look I want it all
Those eyes
You've got me hypnotised
Those eyes are gonna see me through
Pretty girl, I'm loving you
Those eyes
have got me hypnotised
Those eyes are gonna make me fall
One look I want it all
Those eyes
You've got me hypnotised
Those eyes are gonna see me through
Pretty girl, I'm loving you
Those eyes
have got me hypnotised
Yeah Those eyes,
youve got me hypnotised
Tap to rate this tab
 
# A B C D E F G H I J K L M N O P Q R S T U V W X Y Z