Song name
# A B C D E F G H I J K L M N O P Q R S T U V W X Y Z

Thirteen Senses - Thru The Glass tab

-------------------------------------------------------------------------------
			     THRU THE GLASS - thirteen senses
-------------------------------------------------------------------------------

Tabbed by:mike	
Email:its all about the ambience

Tuning: standard

ok theres a tab on here already and the guy has said the chorus wrong, i think is
played completely differently so heres my ideas!

no capo, and i havent put the rythym in

intro:

e|--9---2--3--2--3--0--2--|
B|--11--3--3--3--3--0--2--|
G|--9---4--4--2--4--2--3--|
D|--11--4--5--0--5--2--2--|
A|--9---2--5-----5--0--4--|
E|---------3-----3-----2--|

verse:

e|-2--3--2--2--|
B|-3--3--3--2--|
G|-4--4--2--3--|
D|-4--5--0--2--|
A|-2--5-----4--|
E|----3-----2--|

with this over the top:

e|---------------------------------------------------------------------------|
B|--7--5--7-----7--5--7-----7--5--7----8-----8-------------------------------|
G|-----------7-----------7----------7-----7-----7----------------------------|
D|---------------------------------------------------------------------------|
A|---------------------------------------------------------------------------|
E|---------------------------------------------------------------------------|

e|---------------------------------------------------------------------------|
B|--7--5--7-----7--5--7-----7--5--7----7--5--7-------------------------------|
G|-----------7-----------7----------6-----------6----------------------------|
D|---------------------------------------------------------------------------|
A|---------------------------------------------------------------------------|
E|---------------------------------------------------------------------------|

just before chorus:

e|--3--
B|--3--
G|--4--
D|--5--
A|--5--
E|--3--

chorus:

e|--2--0--      -3--2--|
B|--3--0--      -3--3--|
G|--2--1-- then -4--2--|
D|--0--2--      -5--0--|
A|-----2--      -5-----|
E|-----0--      -3-----|

the rest is pretty easily formed from this.
mike x


Tap to rate this tab
# A B C D E F G H I J K L M N O P Q R S T U V W X Y Z