Song name
# A B C D E F G H I J K L M N O P Q R S T U V W X Y Z

Thirteen Senses - Do No Wrong tab

Do No Wrong
Thirteen Senses

[the piano part]

This is the main riff. The (7) isn't played on the intro, but it is played during the rest of the song.

e|--------------5---------------------------------3--------------------------------------------------------0----------|
B|----------6------6--------------------------5-----5---------------------1--3--1-------------------1----1------------|
G|-------7------------7-------------------5-----------5---------------3-----------3--------------2----------2---------| x2
D|----(7)-----------------7-----------5------------------5---------3----------------3---------2-----------------2-----|
A|--5------- -----------------5---3-------------------------3---1----------------------1---0-----------------------0--|
E|--------------------------------------------------------------------------------------------------------------------|

When the drums come in, the piano goes like this:

e|---5-------5---------8/5----3--------3--------8---------|
B|-----6--------6----------------5--------5---------------|
G|--------7---------7--------------5--------5-------------| x2
D|--------------------------------------------------------|
A|--------------------------------------------------------|
E|--------------------------------------------------------|

Then it continues with the main riff.
After the chorus, it follows like this:

e|----------------------------------------------------------------------5--------------|
B|----------1--3--1------------------3--5--3---------------------6------6--------------|
G|-------3-----------3-------------5----------5----------------7------------7----------|
D|----3-----------------3--------5---------------5----------7-------------------7------|
A|--1---------------------1---3---------------------3---5---------------------------5--|
E|-------------------------------------------------------------------------------------|

Then back to the main riff.
That's basically it.

Let me know if you have any corrections
sundaynightsky@hotmail.co.uk
Tap to rate this tab
 
# A B C D E F G H I J K L M N O P Q R S T U V W X Y Z