Song name
# A B C D E F G H I J K L M N O P Q R S T U V W X Y Z

This Beautiful Republic - Going Under tab

Band: This Beautiful Republic
Song: Going Under
Tabber: codycoffey
Email: codycoffey07@yahoo.com
Tuning: Drop Db (Db Ab Db Gb Bb Eb)


Allright my second tab of TBR is in.  Sorry it took so long, I just started to catch on
the different tunings.  I actually got help from TBR's guitar player Jeremy.  He told me
they always play a half step down, but mostly Drop Db.  But Right Now can stay the same 
you can still play it in standard tuning.  I know this is TBR's best song yet.  And I
both guitars.  Go TBR!  And rate this tab please, thanks.

Intro x1

(Guitar 1)
Eb|------------------------------------------------------------------|
Bb|------------------------------------------------------------------|
Gb|--7-7---9-9-9-9-9-9-9-9--4-4-4-4-4-4-4-4--11-11-11-11-11-11-11-11-|
Db|--7-7---x-x-x-x-x-x-x-x--x-x-x-x-x-x-x-x--x--x--x--x--x--x--x--x--|
Ab|--7-7---7-7-7-7-7-7-7-7--2-2-2-2-2-2-2-2--9--9--9--9--9--9--9--9--|
Db|--7-7-------------------------------------------------------------|
           ^
    Harmonic

Eb|-----------------------|
Bb|-----------------------|
Gb|-7-7-7-7-7-7-7-7-------|
Db|-x-x-x-x-x-x-x-x-------|
Ab|-5-5-5-5-5-5-5-5-------|
Db|-----------------------|

(Guitar 2)
Eb|----------------------------------------------------|
Bb|----------------------------------------------------|
Gb|-9-9-9-9-9-9-9-9--4-4-4-4-4-4-4-4-------------------|
Db|-9-9-9-9-9-9-9-9--4-4-4-4-4-4-4-4--2-2-2-2-2-2-2-2--|
Ab|-7-7-7-7-7-7-7-7--2-2-2-2-2-2-2-2--2-2-2-2-2-2-2-2--|
Db|-----------------------------------2-2-2-2-2-2-2-2--|


Eb|----------------------|
Bb|----------------------|
Gb|----------------------|
Db|--0-0-0-0-0-0-0-0-----|
Ab|--0-0-0-0-0-0-0-0-----|
Db|--0-0-0-0-0-0-0-0-----|

Pre-Verse 2x  (I usually play both guitars here, it's easy)

(Guitar 1)
Eb|--------------------------------|
Bb|--------------------------------|
Gb|-------11-11------11-11-----11/-|(only slide down on last note here)
Db|--------------------------------|
Ab|--------------------------------|
Db|--------------------------------|


(Guitar 2)
Eb|--------------------------------|
Bb|--------------------------------|
Gb|--------------------------------|
Db|-10-10------10-10-----10-10-----|
Ab|-10-10------10-10-----10-10-----|
Db|-10-10------10-10-----10-10-----|

Post-Verse x1

(Both Guitars)
Eb|-----------------------------|
Bb|-----------------------------|
Gb|-----------------------------|
Db|--2--2--2----x---------------|
Ab|--2--2--2----x---------------|
Db|--2--2--2----x---------------|


Verse 8x

(Guitar 1 only)
Eb|-----------------------------------------------|
Bb|-----------------------------------------------|
Gb|-----------------------------------------------|
Db|--------------16-16-16-14---------------16--17-|
Ab|--14-14-14-14-------------14-14-14-14----------|
Db|-----------------------------------------------|
p.m. .. .. .. .. .. .. .. .. .. .. .. ..   ..  ..

Pre-Chorus x1

(Both Guitars)
Eb|-----------------------------|
Bb|-----------------------------|
Gb|-----------------------------|
Db|--10~------7-7--7------------|
Ab|--10~------7-7--7------------|
Db|--10~------7-7--7------------|
                 ^
      All three 7's are Harmonics


Chorus 1x

(Guitar 1)
Eb|------------------------------------------------------------|
Bb|------------------------------------------------------------|
Gb|--9-9-9-9-9-9-9-9--4-4-4-4-4-4-4-4--11-11-11-11-11-11-11-11-|
Db|--x-x-x-x-x-x-x-x--x-x-x-x-x-x-x-x--x--x--x--x--x--x--x--x--|
Ab|--7-7-7-7-7-7-7-7--2-2-2-2-2-2-2-2--9--9--9--9--9--9--9--9--|
Db|------------------------------------------------------------|

Eb|------------------------------------------------------|
Bb|------------------------------------------------------|
Gb|-7-7-7-7-7-7-7-7----9-9-9-9-9-9-9-9--4-4-4-4-4-4-4-4--|
Db|-x-x-x-x-x-x-x-x----x-x-x-x-x-x-x-x--x-x-x-x-x-x-x-x--|
Ab|-5-5-5-5-5-5-5-5----7-7-7-7-7-7-7-7--2-2-2-2-2-2-2-2--|
Db|------------------------------------------------------|

Eb|--------------------------------------------------------|
Bb|--------------------------------------------------------|
Gb|-11-11-11-11-11-11-11-11-11/14-14-14-14-14-14-14-14-14--|
Db|-x--x--x--x--x--x--x--x--x-/x--x--x--x--x--x--x--x--x---|
Ab|-9--9--9--9--9--9--9--9--9-/12-12-12-12-12-12-12-12-12--|
Db|--------------------------------------------------------|

Eb|------------------------------------------------------------|
Bb|------------------------------------------------------------|
Gb|--9-9-9-9-9-9-9-9--4-4-4-4-4-4-4-4--11-11-11-11-11-11-11-11-|
Db|--x-x-x-x-x-x-x-x--x-x-x-x-x-x-x-x--x--x--x--x--x--x--x--x--|
Ab|--7-7-7-7-7-7-7-7--2-2-2-2-2-2-2-2--9--9--9--9--9--9--9--9--|
Db|------------------------------------------------------------|

Eb|-------------------|
Bb|-------------------|
Gb|-7-7-7-7-7-7-7-7---|
Db|-x-x-x-x-x-x-x-x---|
Ab|-5-5-5-5-5-5-5-5---|
Db|-------------------|


(Guitar 2)
Eb|-------------------------------------------------------|
Bb|-------------------------------------------------------|
Gb|-9-9-9-9-9-9-9-9--4-4-4-4-4-4-4-4----------------------|
Db|-9-9-9-9-9-9-9-9--4-4-4-4-4-4-4-4--2-2-2-2-2-2-2-2-----|
Ab|-7-7-7-7-7-7-7-7--2-2-2-2-2-2-2-2--2-2-2-2-2-2-2-2-----|
Db|-----------------------------------2-2-2-2-2-2-2-2-----|

Eb|-------------------------------------------------------|
Bb|-------------------------------------------------------|
Gb|---------------------9-9-9-9-9-9-9-9--4-4-4-4-4-4-4-4--|
Db|--0-0-0-0-0-0-0-0----9-9-9-9-9-9-9-9--4-4-4-4-4-4-4-4--|
Ab|--0-0-0-0-0-0-0-0----7-7-7-7-7-7-7-7--2-2-2-2-2-2-2-2--|
Db|--0-0-0-0-0-0-0-0--------------------------------------|

Eb|-------------------------------------------------------|
Bb|-------------------------------------------------------|
Gb|--9-9-9-9-9-9-9-9--7-7-7-7-7-7-7-7----9-9-9-9-9-9-9-9--|
Db|--9-9-9-9-9-9-9-9--7-7-7-7-7-7-7-7----9-9-9-9-9-9-9-9--|
Ab|--7-7-7-7-7-7-7-7--5-5-5-5-5-5-5-5----7-7-7-7-7-7-7-7--|
Db|-------------------------------------------------------|

Eb|-------------------------------------------------------|
Bb|-------------------------------------------------------|
Gb|---4-4-4-4-4-4-4-4-------------------------------------|
Db|---4-4-4-4-4-4-4-4--2-2-2-2-2-2-2-2--0-0-0-0-0-0-0-0---|
Ab|---2-2-2-2-2-2-2-2--2-2-2-2-2-2-2-2--0-0-0-0-0-0-0-0---|
Db|--------------------2-2-2-2-2-2-2-2--0-0-0-0-0-0-0-0---|

Pre-Verse 2x  (no slide on last note)

Post-Verse 2 1x

(Both Guitars)
Eb|----------------------|
Bb|----------------------|
Gb|----------------------|
Db|--2--2--2--2--2-------|
Ab|--2--2--2--2--2-------|
Db|--2--2--2--2--2-------|

Then Play The Verse 8x


Pre-Chorus 2

(Guitar 1)
Eb|-----------------------------|
Bb|-----------------------------|
Gb|-----------------------------|
Db|--2--9--5--7--4--0-----------|
Ab|-----------------------------|
Db|-----------------------------|


Eb|-----------------------------|
Bb|-----------------------------|
Gb|-----------------------------|
Db|--2--0--5--7--4--------------|
Ab|-----------------------------|
Db|-----------------------------|


(Guitar 2)
Eb|--------------------------------|
Bb|--------------------------------|
Gb|--------------------------------|
Db|--10~-----------2--0--5--7--4---|
Ab|--10~-----------2--0--5--7--4---|
Db|--10~-----------2--0--5--7--4---|

Then Chorus 1x


Pre-Bridge

(Guitar 1)
Eb|-----------------------------|
Bb|-----------------------------|
Gb|-----------------------------|
Db|--2--9--4~------7------------|
Ab|-------------------5--2~-----|
Db|-----------------------------|x4

(Guitar 2)
Eb|------------------|
Bb|------------------|
Gb|------------------|
Db|--2~--------------|
Ab|--2~--------------|
Db|--2~--------------| x1

(These harmonics come in when guitar 1 has played his part 2 times)
Eb|----12-------7-------|
Bb|12--------7----------|
Gb|--12-------7---------|
Db|---------------------|
Ab|---------------------|
Db|---------------------|
(also the 12 harmonics are played during the 3rd time guitar 1 has played its part, and
7's are in the 4th part, then guitar 2 plays two 7 harmonics just like above w/out
1, just the bass)


Post-Bridge 4x

(Both Guitars)
Eb|-----------------------|
Bb|-----------------------|
Gb|-----------------------|
Db|--x-x--2--0--5--7--4---|
Ab|--x-x--2--0--5--7--4---|
Db|--x-x--2--0--5--7--4---|


Bridge (Clean Guitars) 1x

(Guitar 1)
Eb|----------------------------------------------------------------|
Bb|----------------------------------------------------------------|
Gb|----------------------------------------------------------------|
Db|----------------------------------------------------------------|
Ab|-7-7-7-7-7-7-7-7--2-2-2-2-2-2--9-9-9-9-9-9-9-9--5-5-5-5-5-5-5-5-|
Db|----------------------------------------------------------------|

Eb|---------------------------------------------------|
Bb|---------------------------------------------------|
Gb|---------------------------------------------------|
Db|---------------------------------------------------|
Ab|-7-7-7-7-7-7-7-7--2-2-2-2-2-2--9-9-9-9-9-9-9-9-----|
Db|---------------------------------------------------|

Eb|---------------------------|
Bb|---------------------------|
Gb|---------------------------|
Db|---------------------------|
Ab|-12-12-12-12-12-12-12-12---|
Db|---------------------------|
p.m... .. .. ..


(Guitar 2)
Eb|-------------------------------------------------------------------|
Bb|-------------------------------------------------------------------|
Gb|-------------------------------------------------------------------|
Db|-------------------------------------------------------------------|
Ab|-0-0-0-0-0-0-0-0-2-2-2-2-2-2-2-2-7-7-7-7-7-7-7-5-5-5-5-5-5-5-5-----|
Db|-------------------------------------------------------------------|


Eb|-------------------------------------------------------------------|
Bb|-------------------------------------------------------------------|
Gb|-------------------------------------------------------------------|
Db|-------------------------------------------------------------------|
Ab|-0-0-0-0-0-0-0-0-2-2-2-2-2-2-2-2-----------------------------------|
Db|---------------------------------2-2-2-2-2-2-2-2-0-0-0-0-0-0-0-0---|

Post-Pre-Chorus 3 (odd?) (Guitar 2 plays 1rst) 1x

(Guitar 1)
Eb|----------------------------------------------------------------|
Bb|----------------------------------------------------------------|
Gb|---------11-11-11-11-11-11-11-11-11/14-14-14-14-14-14-14-14-14--|
Db|---------x--x--x--x--x--x--x--x--x-/x--x--x--x--x--x--x--x--x---|
Ab|---------9--9--9--9--9--9--9--9--9-/12-12-12-12-12-12-12-12-12--|
Db|----------------------------------------------------------------|


(Guitar 2)
Eb|---------|
Bb|---------|
Gb|-9-9-----|
Db|-9-9--9--|
Ab|-7-7--9--|
Db|------9--|


Pre-Chorus 3 1x

(Guitar 1)
Eb|---------------------------------------------------|
Bb|---------------------------------------------------|
Gb|------11-11--------11-11------11---------11-11-----|
Db|---------------------------------------------------|
Ab|---------------------------------------------------|
Db|---------------------------------------------------|


(Guitar 2)
Eb|---------------------------------------------------------|
Bb|---------------------------------------------------------|
Gb|---------------------------------------------------------|
Db|-10-10------10-10-------10-10-----10-10---------10/------|
Ab|-10-10------10-10-------10-10-----10-10---------10/------|
Db|-10-10------10-10-------10-10-----10-10---------10/------|

Then Chorus 1x


Pre-Ending x3

(Guitar 1)
Eb|--------------------------------|
Bb|--------------------------------|
Gb|-------11-11------11-11-----11/-|
Db|--------------------------------|
Ab|--------------------------------|
Db|--------------------------------|

(Guitar 2)
Eb|--------------------------------|
Bb|--------------------------------|
Gb|--------------------------------|
Db|-10-10------10-10-----10-10-----|
Ab|-10-10------10-10-----10-10-----|
Db|-10-10------10-10-----10-10-----|


Ending

(Guitar 1)
Eb|----------------------------------------------|
Bb|----------------------------------------------|
Gb|------11-11---------11-11-----------------2~--|
Db|------------------------------------------2~--|
Ab|------------------------------------------2~--|
Db|------------------------------------------2~--|

(Guitar 2)
Eb|----------------------------------------------|
Bb|----------------------------------------------|
Gb|------------------------------------------2~--|
Db|-10-10-----10-10----------10/-------------2~--|
Ab|-10-10-----10-10----------10/-------------2~--|
Db|-10-10-----10-10----------10/-------------2~--|


Please Rate! And Comment!
any ?'s, email me
Tap to rate this tab
# A B C D E F G H I J K L M N O P Q R S T U V W X Y Z