Song name
# A B C D E F G H I J K L M N O P Q R S T U V W X Y Z

This Beautiful Republic - Last Secund Chance tab

This Beautiful Republic
  Song: Last Secound Chance

 Hey guys. I've been dieing for a tab for this song, so I decided I would do one. TBR
this song in drop C#. I am going to do this tab in standered though because I dont want to
my guitar on drop C#. The tab will still be right if your guitar is in drop C#. THIS TAB 
BE OFF RYTHEM WISE!!!! It is hard to show rythem with tab anyway,I dont think its
right but pretty close.

         Tunnng For Tab: Standred (E,A,D,G,B,e)
         TBR's Tunnings: Drop C#  (C#,G#,C#,F#,Bb,Eb)

Intro:

       GUITAR 1/(2?)

   e|------------------------------------------------------------------|
   B|------------------------------------------------------------------|
   G|--7-7-7-7-7-7-7-7-9-9-9-9-12-12-12-12-x2--14-14-14-14-14-14-14-14-|
   D|------------------------------------------------------------------|
   A|--5-5-5-5-5-5-5-5-7-7-7-7-10-10-10-10-x2--12-12-12-12-12-12-12-12-|
   E|------------------------------------------------------------------|


   e|-------------------------------------------------------------------|
   B|-------------------------------------------------------------------|
   G|--16-16-16-16-12-12-12-12-14-14-14-14-14-14-14-14-16-16-16-16-12---|(RING)
   D|-------------------------------------------------------------------|
   A|--14-14-14-14-10-10-10-10-12-12-12-12-12-12-12-12-14-14-14-14-10---|(RING)
   E|-------------------------------------------------------------------|

Verse 1:

         GUITAR 1

   e|-------------------------------------------------------------------|
   B|-------------------------------------------------------------------|
   G|-------------------------------------------------------------------|
   D|-------------------------------------------------------------------|
   A|-------------------------33-3-33--(REPEAT THIS FOUR TIMES)---------|
   E|--00-0-00-00-0-00-33-3-33------------------------------------------|

         GUITAR 2

   e|-------------------------------------------------------------------|
   B|-------------------------------------------------------------------|
   G|-------------------------------------------------------------------|
   D|----5-4------------------------------------------------------------|
   A|--5-----5---7-5-----(REAPEAT THIS FOUR TIMES)----------------------|
   E|----------7-----7--------------------------------------------------|


Chorus

         GUITAR 1

   e|--------------------------------------------------------------------|
   B|--------------------------------------------------------------------|
   G|--------------------------------------------------------------------|
   D|-22-2-22-22-2-22--2-22-2------5-5-5--xx-77-xx-77--2-2-2-5-----5-5-5-|
   A|-22-2-22-22-2-22--2-22-2------5-5-5--xx-77-xx-77--2-2-2-5-----5-5-5-|
   E|-00-0-00-00-0-00--0-00-0--7p5-3-3-3--xx-55-xx-55--0-0-0-3-7p5-3-3-3-|

   (CONTINUED)

   e|--------------------------------------------------------------------|
   B|--------------------------------------------------------------------|
   G|--------------------------------------------------------------------|
   D|-xx-77-xx-77--------------------------------------------------------|
   A|-xx-77-xx-77--------------------------------------------------------|
   E|-xx-55-xx-55--------------------------------------------------------|


       GUITAR 2

    This is the same part as the verse I think but you just play it higher
    up. I'm not quite shure about this part buy you get the idea.


   e|-------------------------------------------------------------------|
   B|---7-6-------------------------------------------------------------|
   G|-7-----7---9-7-----------------------------------------------------|
   D|---------9-----9---------------------------------------------------|
   A|-------------------------------------------------------------------|
   E|-------------------------------------------------------------------|


     The instermental part or the bridge is just the intro.

     Fell free to make corrections and enjoy!
Tap to rate this tab
 
# A B C D E F G H I J K L M N O P Q R S T U V W X Y Z