Song name
# A B C D E F G H I J K L M N O P Q R S T U V W X Y Z

This Beautiful Republic - My God tab

Song: My God
Artist: This Beautiful Republic
Album: Perceptions

This song is amazing, and there's no tab, so I thought I'd try it out.  I have the intro 
so far, I'm working on the rest of the song.  If you've got some help for the rest of 
the song, comment or shoot me an email at jthans25@gmail.com

Tuning: Drop D One-Half Step Down (Db Ab Db Gb Bb Eb)

|--------------------------------------------------------|
|--------------------------------------------------------|
|--------------------------------------------------------|
|--------------------------------------------------------|
|--------------------------------------------------------|
|--2-2-0-2-2-2-2--2--2--2--2--2-2-0-2-2-2-2--2--2--2-----|

|--------------------------------------------------------|
|--------------------------------------------------------|
|--------------------------------------------------------|
|--------------------------------------------------------|
|--------------------------------------------------------|
|--2-2-0-2-2-2-2--2--2--2--2--2-2-0-2-2-2-2--2--2--2--2--|

|--------------------------------------------------------|
|--------------------------------------------------------|
|--------------------------------------5~--7~------------|
|--------------------------------------5~--7~------------|
|--------------------------------------3~--5~------------|
|--2-2-0-2-2-2-2--2--2--2--2--2-2-0-2--------------------|
Tap to rate this tab
 
# A B C D E F G H I J K L M N O P Q R S T U V W X Y Z