Song name
# A B C D E F G H I J K L M N O P Q R S T U V W X Y Z

This Beautiful Republic - Jesus To The World tab

-------------------------------------------------------------------------------
		Jesus to the World - This Beautiful Republic
-------------------------------------------------------------------------------
Tabbed by:switchfootfan23
Email:bucksfan230@yahoo.com
r=11
Tuning:standard
lead guitar intro(played throughout song)
e|---------------------------------------------------------------------------|
B|---------------------------------------------------------------------------|
G|-13--------13-10-------10-11-----------------------------------------------|
D|----11-11---------11-------------------------------------------------------|
A|---------------------------------------------------------------------------|
E|---------------------------------------------------------------------------|
rythm guitar intro(x8 all)
e|---------------------------------------------------------------------------|
B|---------------------------------------------------------------------------|
G|---------------------------------------------------------------------------|
D|--r--6--8--4---------------------------------------------------------------|
A|--r--6--8--4---------------------------------------------------------------|
E|--9--4--6--2---------------------------------------------------------------|
verse(palm muted)
e|---------------------------------------------------------------------------|
B|---------------------------------------------------------------------------|
G|---------------------------------------------------------------------------|
D|--r--6--8--4---------------------------------------------------------------|
A|--r--6--8--4---------------------------------------------------------------|
E|--9--4--6--2---------------------------------------------------------------|
prechorus
e|---------------------------------------------------------------------------|
B|---------------------------------------------------------------------------|
G|---------------------------------------------------------------------------|
D|--3--4--8--6---------------------------------------------------------------|
A|--3--4--8--6---------------------------------------------------------------|
E|--1--2--6--4---------------------------------------------------------------|
chorus, look at intro. nothing changes

lead guitar verse
e|---------------------------------------------------------------------------|
B|---------------------------------------------------------------------------|
G|--13--*13--*13--13--*13--*13--13--*13--11--*11--*11--11--*11--*11--11-*11--|
D|---------------------------------------------------------------------------|
A|---------------------------------------------------------------------------|
E|---------------------------------------------------------------------------|

e|---------------------------------------------------------------------------|
B|---------------------------------------------------------------------------|
G|--17--*17--*17--15--*15--*15--15b--repeat-verse-once-----------------------|
D|---------------------------------------------------------------------------|
A|---------------------------------------------------------------------------|
E|---------------------------------------------------------------------------|
rythm stays the same
repeat prechorus, chorus
bridge (i guess you can call it a solo)figure out picking
e|---------------------------------------------------------------------------|
B|---------------------------------------------------------------------------|
G|--10--13--11--10-------10--13--11--13--15--18--20--------------------------|
D|-----------------11--6-----------------------------------------------------|
A|---------------------------------------------------------------------------|
E|---------------------------------------------------------------------------|
last part
e|---------------------------------------------------------------------------|
B|---------------------------------------------------------------------------|
G|---------------------------------------------------------------------------|
D|--3--4--8--6---------------------------------------------------------------|
A|--3--4--8--6---------------------------------------------------------------|
E|--1--2--6--4---------------------------------------------------------------|
repeat intro and your finished

| /  slide up
| \  slide down
| h  hammer-on
| p  pull-off
| ~  vibrato
| +  harmonic
| x  Mute note
===============================================================================
Tap to rate this tab
# A B C D E F G H I J K L M N O P Q R S T U V W X Y Z