Song name
# A B C D E F G H I J K L M N O P Q R S T U V W X Y Z

This Bike Is A Pipe Bomb - Johnny tab

----------------------------------------------------------------------------
			     Johnny - Daniel Wesley
----------------------------------------------------------------------------
Tabbed by: p.c.



e|--------------------------------------------------------------------|
B|--------------------------------------------------------------------|
G|--------------8---x-x-----------------------------------------------|
D|---------8----8---x-x------8--x-x--------6---x-x------8-------------|
A|-----6--------6---x-x------8--x-x-----6--4---x-x------8-------------|
E|-----------------------6---6--x-x---4----4---x-x---6--6-------------|


i think it's like that for the whole song but not sure. tell me if u think u know how it is


| /  slide up
| \  slide down
| h  hammer-on
| p  pull-off
| ~  vibrato
| +  harmonic
| x  Mute note
============================================================================
Tap to rate this tab
 
# A B C D E F G H I J K L M N O P Q R S T U V W X Y Z