Song name
# A B C D E F G H I J K L M N O P Q R S T U V W X Y Z

This Century - Everywhere Everything tab

-------------------------------------------------------------------------------
                             Everywhere Everything by This Century
-------------------------------------------------------------------------------

Tabbed by: Filip Log
Email: Flipsern@gmail.com

Tuning: EADGAd (If you do not know how to tune your guitar down to EADGAd
from EADGBe, tune the B and the light e string down three frets.)

Capo: 4th fret (optional)

Notice: Using a capo at 4th fret will make the chorus alot much easier.
However, if you do not have a capo, you can mute the G string,
as shown at the bottom.

Intro and verse (pluck the strings used): 

E|---------------------------------------------------------|
B|---9-9-9---9-9-9-9---9-9-9---11-11-11-11-----------------|
G|---------------------------------------------------------|
D|---9-9-9---9-9-9-9---9-9-9---11-11-11-11-----------------|
A|---7-7-7-------------9-9-9---11-11-11-11-----------------|
E|-----------7-7-7-7---------------------------------------|




Chorus (strummed this):


E|-----------------------------------------------------------|
B|---9-9-9-9-9-9-9-9-9-9-11-11-11-11-------------------------|
G|---4-4-4-4-4-4-4-4-4-4-x--x--x--x--------------------------|
D|---9-9-9-9-9-9-9-9-9-9-11-11-11-11-------------------------|
A|---7-7-7-7-7-7-7-9-9-9-11-11-11-11-------------------------|
E|---------7-7-7-7-------------------------------------------|



If you don't have a capo, play this on the chorus:

E|-----------------------------------------------------------|
B|---9-9-9-9-9-9-9-9-9-9-11-11-11-11-------------------------|
G|---x-x-x-x-x-x-x-x-x-x-x--x--x--x--------------------------|
D|---9-9-9-9-9-9-9-9-9-9-11-11-11-11-------------------------|
A|---7-7-7-7-7-7-7-9-9-9-11-11-11-11-------------------------|
E|---------7-7-7-7-------------------------------------------|
Tap to rate this tab
# A B C D E F G H I J K L M N O P Q R S T U V W X Y Z