Song name
# A B C D E F G H I J K L M N O P Q R S T U V W X Y Z

This City - We Move tab

#----------------------------------PLEASE NOTE---------------------------------#
#This file is the author's own work and represents their interpretation of the #
#song. You may only use this file for private study, scholarship, or research. #
#------------------------------------------------------------------------------##




THISCITY - "WE MOVE"
www.myspace.com/thiscitymusic

Gtr I (D A D G B E) - 'Lead Guitar'
Gtr II (D A D G B E) - 'Rhythm Guitar'
 
 4/4




Lead Guitar (Grant)

Intro

      E   E   E   E   E   E  E   E     E   E   E   E   E   E   Q     
E||---------------------------------|-------------------------12----|
B||----------12------14--12---------|---------12------14------------|
G||--11--11------11-------------11--|-----11------11------11--------|
D||---------------------------------|-------------------------------|
A||---------------------------------|-------------------------------|
D||---------------------------------|-------------------------------|


   E   E   E   E   E   E  E   E     E   E   E   E   E   E   Q     
---------------------------------|-------------------------14----|
----------12------14--12---------|---------12------14------------|
--11--11------11-------------11--|-----11------11------11--------|
---------------------------------|-------------------------------|
---------------------------------|-------------------------------|
---------------------------------|-------------------------------|


   E   E   E   E   E   E  E   E     E   E   E   E   E   E   Q     
---------------------------------|-------------------------12----|
----------12------14--12---------|---------12------14------------|
--11--11------11-------------11--|-----11------11------11--------|
---------------------------------|-------------------------------|
---------------------------------|-------------------------------|
---------------------------------|-------------------------------|


   E   E   E   E   E   E   E   E      E   E   E   E   E   E   E   E   
----------------------------------|----------------------------------|
----------12--14----------12--14--|----------15--17----------15--17--|
--11--11----------11--11----------|--14--14----------14--14----------|
----------------------------------|----------------------------------|
----------------------------------|----------------------------------|
----------------------------------|----------------------------------|


   E   E   E   E   E   E  E   E     E   E   E   E   E   E   Q     
---------------------------------|-------------------------12----|
----------12------14--12---------|---------12------14------------|
--11--11------11-------------11--|-----11------11------11--------|
---------------------------------|-------------------------------|
---------------------------------|-------------------------------|
---------------------------------|-------------------------------|


   E   E   E   E   E   E  E   E     E   E   E   E   E   E   Q     
---------------------------------|-------------------------14----|
----------12------14--12---------|---------12------14------------|
--11--11------11-------------11--|-----11------11------11--------|
---------------------------------|-------------------------------|
---------------------------------|-------------------------------|
---------------------------------|-------------------------------|


   E   E   E   E   E   E  E   E     E   E   E   E   E   E   Q     
---------------------------------|-------------------------12----|
----------12------14--12---------|---------12------14------------|
--11--11------11-------------11--|-----11------11------11--------|
---------------------------------|-------------------------------|
---------------------------------|-------------------------------|
---------------------------------|-------------------------------|


   E   E   E   E   E   E   E   E      E   E   E   E   E   E   E   E   
----------------------------------|----------------------------------|
----------12--14----------12--14--|----------15--17----------15--17--|
--11--11----------11--11----------|--14--14----------14--14----------|
----------------------------------|----------------------------------|
----------------------------------|----------------------------------|
----------------------------------|----------------------------------|


1st Verse - "T-t-t-take my hand, as the rain moves!"


   E   E  E   E  E   E  E   E     E   E  E   E   E   E   E    E   
-------------------------------|---------------------------------|
-------------------------------|---------------------------------|
--11--11-----11-----11-----11--|-----11-----13--13--13--13S--14--|
-------------------------------|---------------------------------|
---9---9------9------9------9--|------9-----11--11--11--11S--12--|
-------------------------------|---------------------------------|


   E   E  E   E  E   E  E   E     E   E  E   E   E   E   E    E   
-------------------------------|---------------------------------|
-------------------------------|---------------------------------|
--14--11-----11-----11-----11--|-----11-----13--13--13--13S--14--|
-------------------------------|---------------------------------|
--12---9------9------9------9--|------9-----11--11--11--11S--12--|
-------------------------------|---------------------------------|


   E   E  E   E  E   E  E   E     E   E  E   E   E   E   E    E   
-------------------------------|---------------------------------|
-------------------------------|---------------------------------|
--14--11-----11-----11-----11--|-----11-----13--13--13--13S--14--|
-------------------------------|---------------------------------|
--12---9------9------9------9--|------9-----11--11--11--11S--12--|
-------------------------------|---------------------------------|


   E   E  E   E  E   E  E   E     E   E  E   E   E   E   E   E   
-------------------------------|--------------------------------|
-------------------------------|--------------------------------|
--14--13-----14-----13-----14--|-----13-----16--16--16--16--16--|
-------------------------------|--------------------------------|
--12--11-----12-----11-----12--|-----11-----14--14--14--14--14--|
-------------------------------|--------------------------------|


   E   E  E   E  E   E  E   E     E   E  E   E   E   E   E    E   
-------------------------------|---------------------------------|
-------------------------------|---------------------------------|
--11--11-----11-----11-----11--|-----11-----13--13--13--13S--14--|
-------------------------------|---------------------------------|
---9---9------9------9------9--|------9-----11--11--11--11S--12--|
-------------------------------|---------------------------------|


   E   E  E   E  E   E  E   E     E   E  E   E   E   E   E    E   
-------------------------------|---------------------------------|
-------------------------------|---------------------------------|
--14--11-----11-----11-----11--|-----11-----13--13--13--13S--14--|
-------------------------------|---------------------------------|
--12---9------9------9------9--|------9-----11--11--11--11S--12--|
-------------------------------|---------------------------------|


   E   E  E   E  E   E  E   E     E   E  E   E   E   E   E    E   
-------------------------------|---------------------------------|
-------------------------------|---------------------------------|
--14--11-----11-----11-----11--|-----11-----13--13--13--13S--14--|
-------------------------------|---------------------------------|
--12---9------9------9------9--|------9-----11--11--11--11S--12--|
-------------------------------|---------------------------------|


   E   E  E   E  E   E  E   E     E   E  E   E   E   E   E   E   
-------------------------------|--------------------------------|
-------------------------------|--------------------------------|
--14--13-----14-----13-----14--|-----13-----16--16--16--16--16--|
-------------------------------|--------------------------------|
--12--11-----12-----11-----12--|-----11-----14--14--14--14--14--|
-------------------------------|--------------------------------|


1st Chorus - "We Move, Move, Move at just the right speed."


   E   E   E   E   E   E   E   E      E   E   E   E   E   E   E   E   
----------------------------------|----------------------------------|
----------------------------------|----------------------------------|
--11--11--11--11--11--11--11--11--|--11--11--11--11--13--13--14--14--|
----------------------------------|----------------------------------|
---9---9---9---9---9---9---9---9--|---9---9---9---9--11--11--12--12--|
----------------------------------|----------------------------------|


   E   E   E   E   E   E   E   E      E   E   E   E   E   E   E   E   
----------------------------------|----------------------------------|
----------------------------------|----------------------------------|
--11--11--11--11--11--11--11--11--|--11--11--11--11--13--13--14--14--|
----------------------------------|----------------------------------|
---9---9---9---9---9---9---9---9--|---9---9---9---9--11--11--12--12--|
----------------------------------|----------------------------------|


   E   E   E   E   E   E   E   E      E   E   E   E   E   E   E   E   
----------------------------------|----------------------------------|
----------------------------------|----------------------------------|
--11--11--11--11--11--11--11--11--|--11--11--11--11--13--13--14--14--|
----------------------------------|----------------------------------|
---9---9---9---9---9---9---9---9--|---9---9---9---9--11--11--12--12--|
----------------------------------|----------------------------------|


   E   E   E   E   E   E   E   E      E   E   E   E   E   E   E   E   
----------------------------------|----------------------------------|
----------------------------------|----------------------------------|
--13--13--13--13--13--13--13--13--|--14--14--14--14--16--16--16--16--|
----------------------------------|----------------------------------|
--11--11--11--11--11--11--11--11--|--12--12--12--12--14--14--14--14--|
----------------------------------|----------------------------------|


   E   E   E   E   E   E   E   E      E   E   E   E   E   E   E   E   
----------------------------------|----------------------------------|
----------------------------------|----------------------------------|
--11--11--11--11--11--11--11--11--|--11--11--11--11--13--13--14--14--|
----------------------------------|----------------------------------|
---9---9---9---9---9---9---9---9--|---9---9---9---9--11--11--12--12--|
----------------------------------|----------------------------------|


   E   E   E   E   E   E   E   E      E   E   E   E   E   E   E   E   
----------------------------------|----------------------------------|
----------------------------------|----------------------------------|
--11--11--11--11--11--11--11--11--|--11--11--11--11--13--13--14--14--|
----------------------------------|----------------------------------|
---9---9---9---9---9---9---9---9--|---9---9---9---9--11--11--12--12--|
----------------------------------|----------------------------------|


   E   E   E   E   E   E   E   E      E   E   E   E   E   E   E   E   
----------------------------------|----------------------------------|
----------------------------------|----------------------------------|
--11--11--11--11--11--11--11--11--|--11--11--11--11--13--13--14--14--|
----------------------------------|----------------------------------|
---9---9---9---9---9---9---9---9--|---9---9---9---9--11--11--12--12--|
----------------------------------|----------------------------------|


   E   E   E   E   E   E   E   E      E   E   E   E   E   E   E   E   
----------------------------------|----------------------------------|
----------------------------------|----------------------------------|
--13--13--13--13--13--13--13--13--|--14--14--14--14--16--16--16--16--|
----------------------------------|----------------------------------|
--11--11--11--11--11--11--11--11--|--12--12--12--12--14--14--14--14--|
----------------------------------|----------------------------------|






2nd Verse - ( Same as the first!)


   E   E  E   E  E   E  E   E     E   E  E   E   E   E   E    E   
-------------------------------|---------------------------------|
-------------------------------|---------------------------------|
--11--11-----11-----11-----11--|-----11-----13--13--13--13S--14--|
-------------------------------|---------------------------------|
---9---9------9------9------9--|------9-----11--11--11--11S--12--|
-------------------------------|---------------------------------|


   E   E  E   E  E   E  E   E     E   E  E   E   E   E   E    E   
-------------------------------|---------------------------------|
-------------------------------|---------------------------------|
--14--11-----11-----11-----11--|-----11-----13--13--13--13S--14--|
-------------------------------|---------------------------------|
--12---9------9------9------9--|------9-----11--11--11--11S--12--|
-------------------------------|---------------------------------|


   E   E  E   E  E   E  E   E     E   E  E   E   E   E   E    E   
-------------------------------|---------------------------------|
-------------------------------|---------------------------------|
--14--11-----11-----11-----11--|-----11-----13--13--13--13S--14--|
-------------------------------|---------------------------------|
--12---9------9------9------9--|------9-----11--11--11--11S--12--|
-------------------------------|---------------------------------|


   E   E  E   E  E   E  E   E     E   E  E   E   E   E   E   E   
-------------------------------|--------------------------------|
-------------------------------|--------------------------------|
--14--13-----14-----13-----14--|-----13-----16--16--16--16--16--|
-------------------------------|--------------------------------|
--12--11-----12-----11-----12--|-----11-----14--14--14--14--14--|
-------------------------------|--------------------------------|


   E   E  E   E  E   E  E   E     E   E  E   E   E   E   E    E   
-------------------------------|---------------------------------|
-------------------------------|---------------------------------|
--11--11-----11-----11-----11--|-----11-----13--13--13--13S--14--|
-------------------------------|---------------------------------|
---9---9------9------9------9--|------9-----11--11--11--11S--12--|
-------------------------------|---------------------------------|


   E   E  E   E  E   E  E   E     E   E  E   E   E   E   E    E   
-------------------------------|---------------------------------|
-------------------------------|---------------------------------|
--14--11-----11-----11-----11--|-----11-----13--13--13--13S--14--|
-------------------------------|---------------------------------|
--12---9------9------9------9--|------9-----11--11--11--11S--12--|
-------------------------------|---------------------------------|


   E   E  E   E  E   E  E   E     E   E  E   E   E   E   E    E   
-------------------------------|---------------------------------|
-------------------------------|---------------------------------|
--14--11-----11-----11-----11--|-----11-----13--13--13--13S--14--|
-------------------------------|---------------------------------|
--12---9------9------9------9--|------9-----11--11--11--11S--12--|
-------------------------------|---------------------------------|


   E   E  E   E  E   E  E   E     E   E  E   E   E   E   E   E   
-------------------------------|--------------------------------|
-------------------------------|--------------------------------|
--14--13-----14-----13-----14--|-----13-----16--16--16--16--16--|
-------------------------------|--------------------------------|
--12--11-----12-----11-----12--|-----11-----14--14--14--14--14--|
-------------------------------|--------------------------------|





2nd Chorus


   E   E   E   E   E   E   E   E      E   E   E   E   E   E   E   E   
----------------------------------|----------------------------------|
----------------------------------|----------------------------------|
--11--11--11--11--11--11--11--11--|--11--11--11--11--13--13--14--14--|
----------------------------------|----------------------------------|
---9---9---9---9---9---9---9---9--|---9---9---9---9--11--11--12--12--|
----------------------------------|----------------------------------|


   E   E   E   E   E   E   E   E      E   E   E   E   E   E   E   E   
----------------------------------|----------------------------------|
----------------------------------|----------------------------------|
--11--11--11--11--11--11--11--11--|--11--11--11--11--13--13--14--14--|
----------------------------------|----------------------------------|
---9---9---9---9---9---9---9---9--|---9---9---9---9--11--11--12--12--|
----------------------------------|----------------------------------|


   E   E   E   E   E   E   E   E      E   E   E   E   E   E   E   E   
----------------------------------|----------------------------------|
----------------------------------|----------------------------------|
--11--11--11--11--11--11--11--11--|--11--11--11--11--13--13--14--14--|
----------------------------------|----------------------------------|
---9---9---9---9---9---9---9---9--|---9---9---9---9--11--11--12--12--|
----------------------------------|----------------------------------|


   E   E   E   E   E   E   E   E      E   E   E   E   E   E   E   E   
----------------------------------|----------------------------------|
----------------------------------|----------------------------------|
--13--13--13--13--13--13--13--13--|--14--14--14--14--16--16--16--16--|
----------------------------------|----------------------------------|
--11--11--11--11--11--11--11--11--|--12--12--12--12--14--14--14--14--|
----------------------------------|----------------------------------|


   E   E   E   E   E   E   E   E      E   E   E   E   E   E   E   E   
----------------------------------|----------------------------------|
----------------------------------|----------------------------------|
--11--11--11--11--11--11--11--11--|--11--11--11--11--13--13--14--14--|
----------------------------------|----------------------------------|
---9---9---9---9---9---9---9---9--|---9---9---9---9--11--11--12--12--|
----------------------------------|----------------------------------|


   E   E   E   E   E   E   E   E      E   E   E   E   E   E   E   E   
----------------------------------|----------------------------------|
----------------------------------|----------------------------------|
--11--11--11--11--11--11--11--11--|--11--11--11--11--13--13--14--14--|
----------------------------------|----------------------------------|
---9---9---9---9---9---9---9---9--|---9---9---9---9--11--11--12--12--|
----------------------------------|----------------------------------|


   E   E   E   E   E   E   E   E      E   E   E   E   E   E   E   E   
----------------------------------|----------------------------------|
----------------------------------|----------------------------------|
--11--11--11--11--11--11--11--11--|--11--11--11--11--13--13--14--14--|
----------------------------------|----------------------------------|
---9---9---9---9---9---9---9---9--|---9---9---9---9--11--11--12--12--|
----------------------------------|----------------------------------|


   E   E   E   E   E   E   E   E      E   E   E   E   E   E   E   E   
----------------------------------|----------------------------------|
----------------------------------|----------------------------------|
--13--13--13--13--13--13--13--13--|--14--14--14--14--16--16--16--16--|
----------------------------------|----------------------------------|
--11--11--11--11--11--11--11--11--|--12--12--12--12--14--14--14--14--|
----------------------------------|----------------------------------|






Middle 8 Breakdown

   E  E   E  E   E   E  E   E     E   E  E   E   E   E   E   E   
-------------------------------|--------------------------------|
-------------------------------|--------------------------------|
--11-----11-----11--11-----11--|-----11-----11--11--11--11--11--|
-------------------------------|--------------------------------|
---9------9------9---9------9--|------9------9---9---9---9---9--|
-------------------------------|--------------------------------|


   E  E   E  E   E   E  E   E     E   E  E   E   E   E   E   E   
-------------------------------|--------------------------------|
-------------------------------|--------------------------------|
--11-----11-----11--11-----11--|-----11-----11--11--11--11--11--|
-------------------------------|--------------------------------|
---9------9------9---9------9--|------9------9---9---9---9---9--|
-------------------------------|--------------------------------|


   E  E   E  E   E   E  E   E     E   E  E   E   E   E   E   E   
-------------------------------|--------------------------------|
-------------------------------|--------------------------------|
--11-----11-----11--11-----11--|-----11-----11--11--11--11--11--|
-------------------------------|--------------------------------|
---9------9------9---9------9--|------9------9---9---9---9---9--|
-------------------------------|--------------------------------|


   E  E   E  E   E   E  E   E     E   E  E   E   E   E   E   E   
-------------------------------|--------------------------------|
-------------------------------|--------------------------------|
--11-----11-----11--11-----11--|-----11-----11--11--11--11--11--|
-------------------------------|--------------------------------|
---9------9------9---9------9--|------9------9---9---9---9---9--|
-------------------------------|--------------------------------|


   E  E   E  E   E   E  E   E     E   E  E   E   E   E   E   E   
-------------------------------|--------------------------------|
-------------------------------|--------------------------------|
--11-----11-----11--11-----11--|-----11-----11--11--11--11--11--|
-------------------------------|--------------------------------|
---9------9------9---9------9--|------9------9---9---9---9---9--|
-------------------------------|--------------------------------|


   E  E   E  E   E   E  E   E     E   E  E   E   E   E   E   E   
-------------------------------|--------------------------------|
-------------------------------|--------------------------------|
--11-----11-----11--11-----11--|-----11-----11--11--11--11--11--|
-------------------------------|--------------------------------|
---9------9------9---9------9--|------9------9---9---9---9---9--|
-------------------------------|--------------------------------|



"We live our... We live our lives with... We live our lives with no regrets!"

   E  E   E  E   E   E  E   E     E   E  E   E   E   E   E   E   
-------------------------------|--------------------------------|
-------------------------------|--------------------------------|
--11-----11-----11--11-----11--|-----11-----11--11--11--11--11--|
-------------------------------|--------------------------------|
---9------9------9---9------9--|------9------9---9---9---9---9--|
-------------------------------|--------------------------------|


   E  E   E  E   E   E  E   E     E   E  E   E   E   E   E   E   
-------------------------------|--------------------------------|
-------------------------------|--------------------------------|
--13-----13-----13--13-----13--|-----13-----13--13--13--13--13--|
-------------------------------|--------------------------------|
--11-----11-----11--11-----11--|-----11-----11--11--11--11--11--|
-------------------------------|--------------------------------|


   E  E   E  E   E   E  E   E     E   E  E   E   E   E   E   E   
-------------------------------|--------------------------------|
-------------------------------|--------------------------------|
--14-----14-----14--14-----14--|-----14-----14--14--14--14--14--|
-------------------------------|--------------------------------|
--12-----12-----12--12-----12--|-----12-----12--12--12--12--12--|
-------------------------------|--------------------------------|


   E  E   E  E   E   E  E   E     E   E  E   E   E   E   E   E   
-------------------------------|--------------------------------|
-------------------------------|--------------------------------|
--16-----16-----16--16-----16--|-----16-----16--16--16--16--16--|
-------------------------------|--------------------------------|
--14-----14-----14--14-----14--|-----14-----14--14--14--14--14--|
-------------------------------|--------------------------------|


   E  E   E  E   E   E  E   E     E   E  E   E   E   E   E   E   
-------------------------------|--------------------------------|
-------------------------------|--------------------------------|
--11-----11-----11--11-----11--|-----11-----11--11--11--11--11--|
-------------------------------|--------------------------------|
---9------9------9---9------9--|------9------9---9---9---9---9--|
-------------------------------|--------------------------------|


   E  E   E  E   E   E  E   E     E   E  E   E   E   E   E   E   
-------------------------------|--------------------------------|
-------------------------------|--------------------------------|
--13-----13-----13--13-----13--|-----13-----13--13--13--13--13--|
-------------------------------|--------------------------------|
--11-----11-----11--11-----11--|-----11-----11--11--11--11--11--|
-------------------------------|--------------------------------|


   E  E   E  E   E   E  E   E     E   E  E   E   E   E   E   E   
-------------------------------|--------------------------------|
-------------------------------|--------------------------------|
--14-----14-----14--14-----14--|-----14-----14--14--14--14--14--|
-------------------------------|--------------------------------|
--12-----12-----12--12-----12--|-----12-----12--12--12--12--12--|
-------------------------------|--------------------------------|


   E  E   E  E   E   E  E   E     E   E  E   E   E   E   E   E   
-------------------------------|--------------------------------|
-------------------------------|--------------------------------|
--16-----16-----16--16-----16--|-----16-----16--16--16--16--16--|
-------------------------------|--------------------------------|
--14-----14-----14--14-----14--|-----14-----14--14--14--14--14--|
-------------------------------|--------------------------------|





3rd Chorus

   E   E   E   E   E   E   E   E      E   E   E   E   E   E   E   E   
----------------------------------|----------------------------------|
----------------------------------|----------------------------------|
--11--11--11--11--11--11--11--11--|--11--11--11--11--13--13--14--14--|
----------------------------------|----------------------------------|
---9---9---9---9---9---9---9---9--|---9---9---9---9--11--11--12--12--|
----------------------------------|----------------------------------|


   E   E   E   E   E   E   E   E      E   E   E   E   E   E   E   E   
----------------------------------|----------------------------------|
----------------------------------|----------------------------------|
--11--11--11--11--11--11--11--11--|--11--11--11--11--13--13--14--14--|
----------------------------------|----------------------------------|
---9---9---9---9---9---9---9---9--|---9---9---9---9--11--11--12--12--|
----------------------------------|----------------------------------|


   E   E   E   E   E   E   E   E      E   E   E   E   E   E   E   E   
----------------------------------|----------------------------------|
----------------------------------|----------------------------------|
--11--11--11--11--11--11--11--11--|--11--11--11--11--13--13--14--14--|
----------------------------------|----------------------------------|
---9---9---9---9---9---9---9---9--|---9---9---9---9--11--11--12--12--|
----------------------------------|----------------------------------|


   E   E   E   E   E   E   E   E      E   E   E   E   E   E   E   E   
----------------------------------|----------------------------------|
----------------------------------|----------------------------------|
--13--13--13--13--13--13--13--13--|--14--14--14--14--16--16--16--16--|
----------------------------------|----------------------------------|
--11--11--11--11--11--11--11--11--|--12--12--12--12--14--14--14--14--|
----------------------------------|----------------------------------|


   E   E   E   E   E   E   E   E      E   E   E   E   E   E   E   E   
----------------------------------|----------------------------------|
----------------------------------|----------------------------------|
--11--11--11--11--11--11--11--11--|--11--11--11--11--13--13--14--14--|
----------------------------------|----------------------------------|
---9---9---9---9---9---9---9---9--|---9---9---9---9--11--11--12--12--|
----------------------------------|----------------------------------|


   E   E   E   E   E   E   E   E      E   E   E   E   E   E   E   E   
----------------------------------|----------------------------------|
----------------------------------|----------------------------------|
--11--11--11--11--11--11--11--11--|--11--11--11--11--13--13--14--14--|
----------------------------------|----------------------------------|
---9---9---9---9---9---9---9---9--|---9---9---9---9--11--11--12--12--|
----------------------------------|----------------------------------|


   E   E   E   E   E   E   E   E      E   E   E   E   E   E   E   E   
----------------------------------|----------------------------------|
----------------------------------|----------------------------------|
--11--11--11--11--11--11--11--11--|--11--11--11--11--13--13--14--14--|
----------------------------------|----------------------------------|
---9---9---9---9---9---9---9---9--|---9---9---9---9--11--11--12--12--|
----------------------------------|----------------------------------|


   E   E   E   E   E   E   E   E      E   E   E   E   E   E   E   E   
----------------------------------|----------------------------------|
----------------------------------|----------------------------------|
--13--13--13--13--13--13--13--13--|--14--14--14--14--16--16--16--16--|
----------------------------------|----------------------------------|
--11--11--11--11--11--11--11--11--|--12--12--12--12--14--14--14--14--|
----------------------------------|----------------------------------|





End Part

   E  E   E  E   E   E  E   E     E   E  E   E   E   E   E   E   
-------------------------------|--------------------------------|
-------------------------------|--------------------------------|
--11-----11-----11--11-----11--|-----11-----11--11--11--11--11--|
-------------------------------|--------------------------------|
---9------9------9---9------9--|------9------9---9---9---9---9--|
-------------------------------|--------------------------------|


   E  E   E  E   E   E  E   E     E   E  E   E   E   E   E   E   
-------------------------------|--------------------------------|
-------------------------------|--------------------------------|
--11-----11-----11--11-----11--|-----11-----11--11--11--11--11--|
-------------------------------|--------------------------------|
---9------9------9---9------9--|------9------9---9---9---9---9--|
-------------------------------|--------------------------------|


   E  E   E  E   E   E  E   E     E   E  E   E   E   E   E   E   
-------------------------------|--------------------------------|
-------------------------------|--------------------------------|
--11-----11-----11--11-----11--|-----11-----11--11--11--11--11--|
-------------------------------|--------------------------------|
---9------9------9---9------9--|------9------9---9---9---9---9--|
-------------------------------|--------------------------------|


   E  E   E  E   E   E  E   E     E   E  E   E   E   E   E   E   
-------------------------------|--------------------------------|
-------------------------------|--------------------------------|
--11-----11-----11--11-----11--|-----11-----11--11--11--11--11--|
-------------------------------|--------------------------------|
---9------9------9---9------9--|------9------9---9---9---9---9--|
-------------------------------|--------------------------------|




End Part solo

   E   E   E   E   E   E  E   E     E   E   E   E   E   E   Q     
---------------------------------|-------------------------12----|
----------12------14--12---------|---------12------14------------|
--11--11------11-------------11--|-----11------11------11--------|
---------------------------------|-------------------------------|
---------------------------------|-------------------------------|
---------------------------------|-------------------------------|


   E   E   E   E   E   E  E   E     E   E   E   E   E   E   Q     
---------------------------------|-------------------------14----|
----------12------14--12---------|---------12------14------------|
--11--11------11-------------11--|-----11------11------11--------|
---------------------------------|-------------------------------|
---------------------------------|-------------------------------|
---------------------------------|-------------------------------|


   E   E   E   E   E   E  E   E     E   E   E   E   E   E   Q     
---------------------------------|-------------------------12----|
----------12------14--12---------|---------12------14------------|
--11--11------11-------------11--|-----11------11------11--------|
---------------------------------|-------------------------------|
---------------------------------|-------------------------------|
---------------------------------|-------------------------------|


   E   E   E   E   E   E  E   E     E   E   E   E   E   E   Q     
---------------------------------|-------------------------14----|
----------12------14--12---------|---------12------14------------|
--11--11------11-------------11--|-----11------11------11--------|
---------------------------------|-------------------------------|
---------------------------------|-------------------------------|
---------------------------------|-------------------------------|



Ending


   E  E   E  E   E   E  E   E     E   E  E   E   E  Q.       
-------------------------------|---------------------------||
-------------------------------|---------------------------||
--11-----11-----11--11-----11--|-----11-----11--11---------||
-------------------------------|---------------------------||
---9------9------9---9------9--|------9------9---9---------||
-------------------------------|---------------------------||














Rhythm Guitar (Arran)


Intro

      E   E  E   E  E   E  E   E     E   E  E   E   E   E   E    E   
E||-------------------------------|---------------------------------|
B||-------------------------------|---------------------------------|
G||--11--11-----11-----11-----11--|-----11-----13--13--13--13S--14--|
D||-------------------------------|---------------------------------|
A||---9---9------9------9------9--|------9-----11--11--11--11S--12--|
D||-------------------------------|---------------------------------|


   E   E  E   E  E   E  E   E     E   E  E   E   E   E   E    E   
-------------------------------|---------------------------------|
-------------------------------|---------------------------------|
--14--11-----11-----11-----11--|-----11-----13--13--13--13S--14--|
-------------------------------|---------------------------------|
--12---9------9------9------9--|------9-----11--11--11--11S--12--|
-------------------------------|---------------------------------|


   E   E  E   E  E   E  E   E     E   E  E   E   E   E   E    E   
-------------------------------|---------------------------------|
-------------------------------|---------------------------------|
--14--11-----11-----11-----11--|-----11-----13--13--13--13S--14--|
-------------------------------|---------------------------------|
--12---9------9------9------9--|------9-----11--11--11--11S--12--|
-------------------------------|---------------------------------|


   E   E  E   E  E   E  E   E     E   E  E   E   E   E   E   E   
-------------------------------|--------------------------------|
-------------------------------|--------------------------------|
--14--13-----14-----13-----14--|-----13-----16--16--16--16--16--|
-------------------------------|--------------------------------|
--12--11-----12-----11-----12--|-----11-----14--14--14--14--14--|
-------------------------------|--------------------------------|


   E   E  E   E  E   E  E   E     E   E  E   E   E   E   E    E   
-------------------------------|---------------------------------|
-------------------------------|---------------------------------|
--11--11-----11-----11-----11--|-----11-----13--13--13--13S--14--|
-------------------------------|---------------------------------|
---9---9------9------9------9--|------9-----11--11--11--11S--12--|
-------------------------------|---------------------------------|


   E   E  E   E  E   E  E   E     E   E  E   E   E   E   E    E   
-------------------------------|---------------------------------|
-------------------------------|---------------------------------|
--14--11-----11-----11-----11--|-----11-----13--13--13--13S--14--|
-------------------------------|---------------------------------|
--12---9------9------9------9--|------9-----11--11--11--11S--12--|
-------------------------------|---------------------------------|


   E   E  E   E  E   E  E   E     E   E  E   E   E   E   E    E   
-------------------------------|---------------------------------|
-------------------------------|---------------------------------|
--14--11-----11-----11-----11--|-----11-----13--13--13--13S--14--|
-------------------------------|---------------------------------|
--12---9------9------9------9--|------9-----11--11--11--11S--12--|
-------------------------------|---------------------------------|


   E   E  E   E  E   E  E   E     E   E  E   E   E   E   E   E   
-------------------------------|--------------------------------|
-------------------------------|--------------------------------|
--14--13-----14-----13-----14--|-----13-----16--16--16--16--16--|
-------------------------------|--------------------------------|
--12--11-----12-----11-----12--|-----11-----14--14--14--14--14--|
-------------------------------|--------------------------------|


   E   E  E   E  E   E  E   E     E   E  E   E   E   E   E    E   
-------------------------------|---------------------------------|
-------------------------------|---------------------------------|
--11--11-----11-----11-----11--|-----11-----13--13--13--13S--14--|
-------------------------------|---------------------------------|
---9---9------9------9------9--|------9-----11--11--11--11S--12--|
-------------------------------|---------------------------------|


   E   E  E   E  E   E  E   E     E   E  E   E   E   E   E    E   
-------------------------------|---------------------------------|
-------------------------------|---------------------------------|
--14--11-----11-----11-----11--|-----11-----13--13--13--13S--14--|
-------------------------------|---------------------------------|
--12---9------9------9------9--|------9-----11--11--11--11S--12--|
-------------------------------|---------------------------------|


   E   E  E   E  E   E  E   E     E   E  E   E   E   E   E    E   
-------------------------------|---------------------------------|
-------------------------------|---------------------------------|
--14--11-----11-----11-----11--|-----11-----13--13--13--13S--14--|
-------------------------------|---------------------------------|
--12---9------9------9------9--|------9-----11--11--11--11S--12--|
-------------------------------|---------------------------------|


   E   E  E   E  E   E  E   E     E   E  E   E   E   E   E   E   
-------------------------------|--------------------------------|
-------------------------------|--------------------------------|
--14--13-----14-----13-----14--|-----13-----16--16--16--16--16--|
-------------------------------|--------------------------------|
--12--11-----12-----11-----12--|-----11-----14--14--14--14--14--|
-------------------------------|--------------------------------|


   E   E  E   E  E   E  E   E     E   E  E   E   E   E   E    E   
-------------------------------|---------------------------------|
-------------------------------|---------------------------------|
--11--11-----11-----11-----11--|-----11-----13--13--13--13S--14--|
-------------------------------|---------------------------------|
---9---9------9------9------9--|------9-----11--11--11--11S--12--|
-------------------------------|---------------------------------|


   E   E  E   E  E   E  E   E     E   E  E   E   E   E   E    E   
-------------------------------|---------------------------------|
-------------------------------|---------------------------------|
--14--11-----11-----11-----11--|-----11-----13--13--13--13S--14--|
-------------------------------|---------------------------------|
--12---9------9------9------9--|------9-----11--11--11--11S--12--|
-------------------------------|---------------------------------|


   E   E  E   E  E   E  E   E     E   E  E   E   E   E   E    E   
-------------------------------|---------------------------------|
-------------------------------|---------------------------------|
--14--11-----11-----11-----11--|-----11-----13--13--13--13S--14--|
-------------------------------|---------------------------------|
--12---9------9------9------9--|------9-----11--11--11--11S--12--|
-------------------------------|---------------------------------|


   E   E  E   E  E   E  E   E     E   E  E   E   E   E   E   E   
-------------------------------|--------------------------------|
-------------------------------|--------------------------------|
--14--13-----14-----13-----14--|-----13-----16--16--16--16--16--|
-------------------------------|--------------------------------|
--12--11-----12-----11-----12--|-----11-----14--14--14--14--14--|
-------------------------------|--------------------------------|




1st Chorus

  E  E  E  E  E  E  E  E     E  E  E  E  E  E  E  E   
--------------------------|--------------------------|
--------------------------|--------------------------|
--------------------------|--------------------------|
--4--4--4--4--4--4--4--4--|--4--4--4--4--7--7--7--7--|
--4--4--4--4--4--4--4--4--|--4--4--4--4--7--7--7--7--|
--4--4--4--4--4--4--4--4--|--4--4--4--4--7--7--7--7--|


  E  E  E  E  E  E  E  E     E  E  E  E  E  E  E  E   
--------------------------|--------------------------|
--------------------------|--------------------------|
--------------------------|--------------------------|
--0--0--0--0--0--0--0--0--|--9--9--9--9--9--9--9--9--|
--0--0--0--0--0--0--0--0--|--9--9--9--9--9--9--9--9--|
--0--0--0--0--0--0--0--0--|--9--9--9--9--9--9--9--9--|


  E  E  E  E  E  E  E  E     E  E  E  E  E  E  E  E   
--------------------------|--------------------------|
--------------------------|--------------------------|
--------------------------|--------------------------|
--4--4--4--4--4--4--4--4--|--4--4--4--4--7--7--7--7--|
--4--4--4--4--4--4--4--4--|--4--4--4--4--7--7--7--7--|
--4--4--4--4--4--4--4--4--|--4--4--4--4--7--7--7--7--|


  E  E  E  E  E  E  E  E     E  E  E  E  E  E  E  E   
--------------------------|--------------------------|
--------------------------|--------------------------|
--------------------------|--------------------------|
--0--0--0--0--0--0--0--0--|--0--0--0--0--0--0--0--0--|
--0--0--0--0--0--0--0--0--|--0--0--0--0--0--0--0--0--|
--0--0--0--0--0--0--0--0--|--0--0--0--0--0--0--0--0--|


  E  E  E  E  E  E  E  E     E  E  E  E  E  E  E  E   
--------------------------|--------------------------|
--------------------------|--------------------------|
--------------------------|--------------------------|
--4--4--4--4--4--4--4--4--|--4--4--4--4--7--7--7--7--|
--4--4--4--4--4--4--4--4--|--4--4--4--4--7--7--7--7--|
--4--4--4--4--4--4--4--4--|--4--4--4--4--7--7--7--7--|


  E  E  E  E  E  E  E  E     E  E  E  E  E  E  E  E   
--------------------------|--------------------------|
--------------------------|--------------------------|
--------------------------|--------------------------|
--0--0--0--0--0--0--0--0--|--9--9--9--9--9--9--9--9--|
--0--0--0--0--0--0--0--0--|--9--9--9--9--9--9--9--9--|
--0--0--0--0--0--0--0--0--|--9--9--9--9--9--9--9--9--|


  E  E  E  E  E  E  E  E     E  E  E  E  E  E  E  E   
--------------------------|--------------------------|
--------------------------|--------------------------|
--------------------------|--------------------------|
--4--4--4--4--4--4--4--4--|--4--4--4--4--7--7--7--7--|
--4--4--4--4--4--4--4--4--|--4--4--4--4--7--7--7--7--|
--4--4--4--4--4--4--4--4--|--4--4--4--4--7--7--7--7--|


  E  E  E  E  E  E  E  E     E  E  E  E  E  E  E  E   
--------------------------|--------------------------|
--------------------------|--------------------------|
--------------------------|--------------------------|
--0--0--0--0--0--0--0--0--|--0--0--0--0--0--0--0--0--|
--0--0--0--0--0--0--0--0--|--0--0--0--0--0--0--0--0--|
--0--0--0--0--0--0--0--0--|--0--0--0--0--0--0--0--0--|





2nd Verse

   E   E  E   E  E   E  E   E     E   E  E   E   E   E   E    E   
-------------------------------|---------------------------------|
-------------------------------|---------------------------------|
--11--11-----11-----11-----11--|-----11-----13--13--13--13S--14--|
-------------------------------|---------------------------------|
---9---9------9------9------9--|------9-----11--11--11--11S--12--|
-------------------------------|---------------------------------|


   E   E  E   E  E   E  E   E     E   E  E   E   E   E   E    E   
-------------------------------|---------------------------------|
-------------------------------|---------------------------------|
--14--11-----11-----11-----11--|-----11-----13--13--13--13S--14--|
-------------------------------|---------------------------------|
--12---9------9------9------9--|------9-----11--11--11--11S--12--|
-------------------------------|---------------------------------|


   E   E  E   E  E   E  E   E     E   E  E   E   E   E   E    E   
-------------------------------|---------------------------------|
-------------------------------|---------------------------------|
--14--11-----11-----11-----11--|-----11-----13--13--13--13S--14--|
-------------------------------|---------------------------------|
--12---9------9------9------9--|------9-----11--11--11--11S--12--|
-------------------------------|---------------------------------|


   E   E  E   E  E   E  E   E     E   E  E   E   E   E   E   E   
-------------------------------|--------------------------------|
-------------------------------|--------------------------------|
--14--13-----14-----13-----14--|-----13-----16--16--16--16--16--|
-------------------------------|--------------------------------|
--12--11-----12-----11-----12--|-----11-----14--14--14--14--14--|
-------------------------------|--------------------------------|


   E   E  E   E  E   E  E   E     E   E  E   E   E   E   E    E   
-------------------------------|---------------------------------|
-------------------------------|---------------------------------|
--11--11-----11-----11-----11--|-----11-----13--13--13--13S--14--|
-------------------------------|---------------------------------|
---9---9------9------9------9--|------9-----11--11--11--11S--12--|
-------------------------------|---------------------------------|


   E   E  E   E  E   E  E   E     E   E  E   E   E   E   E    E   
-------------------------------|---------------------------------|
-------------------------------|---------------------------------|
--14--11-----11-----11-----11--|-----11-----13--13--13--13S--14--|
-------------------------------|---------------------------------|
--12---9------9------9------9--|------9-----11--11--11--11S--12--|
-------------------------------|---------------------------------|


   E   E  E   E  E   E  E   E     E   E  E   E   E   E   E    E   
-------------------------------|---------------------------------|
-------------------------------|---------------------------------|
--14--11-----11-----11-----11--|-----11-----13--13--13--13S--14--|
-------------------------------|---------------------------------|
--12---9------9------9------9--|------9-----11--11--11--11S--12--|
-------------------------------|---------------------------------|


   E   E  E   E  E   E  E   E     E   E  E   E   E   E   E   E   
-------------------------------|--------------------------------|
-------------------------------|--------------------------------|
--14--13-----14-----13-----14--|-----13-----16--16--16--16--16--|
-------------------------------|--------------------------------|
--12--11-----12-----11-----12--|-----11-----14--14--14--14--14--|
-------------------------------|--------------------------------|





2nd Chorus

  E  E  E  E  E  E  E  E     E  E  E  E  E  E  E  E   
--------------------------|--------------------------|
--------------------------|--------------------------|
--------------------------|--------------------------|
--4--4--4--4--4--4--4--4--|--4--4--4--4--7--7--7--7--|
--4--4--4--4--4--4--4--4--|--4--4--4--4--7--7--7--7--|
--4--4--4--4--4--4--4--4--|--4--4--4--4--7--7--7--7--|


  E  E  E  E  E  E  E  E     E  E  E  E  E  E  E  E   
--------------------------|--------------------------|
--------------------------|--------------------------|
--------------------------|--------------------------|
--0--0--0--0--0--0--0--0--|--9--9--9--9--9--9--9--9--|
--0--0--0--0--0--0--0--0--|--9--9--9--9--9--9--9--9--|
--0--0--0--0--0--0--0--0--|--9--9--9--9--9--9--9--9--|


  E  E  E  E  E  E  E  E     E  E  E  E  E  E  E  E   
--------------------------|--------------------------|
--------------------------|--------------------------|
--------------------------|--------------------------|
--4--4--4--4--4--4--4--4--|--4--4--4--4--7--7--7--7--|
--4--4--4--4--4--4--4--4--|--4--4--4--4--7--7--7--7--|
--4--4--4--4--4--4--4--4--|--4--4--4--4--7--7--7--7--|


  E  E  E  E  E  E  E  E     E  E  E  E  E  E  E  E   
--------------------------|--------------------------|
--------------------------|--------------------------|
--------------------------|--------------------------|
--0--0--0--0--0--0--0--0--|--0--0--0--0--0--0--0--0--|
--0--0--0--0--0--0--0--0--|--0--0--0--0--0--0--0--0--|
--0--0--0--0--0--0--0--0--|--0--0--0--0--0--0--0--0--|


  E  E  E  E  E  E  E  E     E  E  E  E  E  E  E  E   
--------------------------|--------------------------|
--------------------------|--------------------------|
--------------------------|--------------------------|
--4--4--4--4--4--4--4--4--|--4--4--4--4--7--7--7--7--|
--4--4--4--4--4--4--4--4--|--4--4--4--4--7--7--7--7--|
--4--4--4--4--4--4--4--4--|--4--4--4--4--7--7--7--7--|


  E  E  E  E  E  E  E  E     E  E  E  E  E  E  E  E   
--------------------------|--------------------------|
--------------------------|--------------------------|
--------------------------|--------------------------|
--0--0--0--0--0--0--0--0--|--9--9--9--9--9--9--9--9--|
--0--0--0--0--0--0--0--0--|--9--9--9--9--9--9--9--9--|
--0--0--0--0--0--0--0--0--|--9--9--9--9--9--9--9--9--|


  E  E  E  E  E  E  E  E     E  E  E  E  E  E  E  E   
--------------------------|--------------------------|
--------------------------|--------------------------|
--------------------------|--------------------------|
--4--4--4--4--4--4--4--4--|--4--4--4--4--7--7--7--7--|
--4--4--4--4--4--4--4--4--|--4--4--4--4--7--7--7--7--|
--4--4--4--4--4--4--4--4--|--4--4--4--4--7--7--7--7--|
									





							Middle 8 Breakdown

  E  E  E  E  E  E  E  E     E  E  E  E  E  E  E  E     W                 
--------------------------|--------------------------|-------------------|
--------------------------|--------------------------|-------------------|
--------------------------|--------------------------|-------------------|
--0--0--0--0--0--0--0--0--|--0--0--0--0--0--0--0--0--|--4----------------|
--0--0--0--0--0--0--0--0--|--0--0--0--0--0--0--0--0--|--4----------------|
--0--0--0--0--0--0--0--0--|--0--0--0--0--0--0--0--0--|--4----------------|


  W                   W                   W                   W                 
-------------------|-------------------|-------------------|-------------------|
-------------------|-------------------|-------------------|-------------------|
-------------------|-------------------|-------------------|-------------------|
-------------------|--0----------------|-------------------|--4----------------|
-------------------|--0----------------|-------------------|--4----------------|
------------------|--0----------------|-------------------|--4----------------|


  W                   W                   W                                   
-------------------|-------------------|-------------------|-----|-----|-----|
-------------------|-------------------|-------------------|-----|-----|-----|
-------------------|-------------------|-------------------|-----|-----|-----|
-------------------|--0----------------|-------------------|-----|-----|-----|
-------------------|--0----------------|-------------------|-----|-----|-----|
-------------------|--0----------------|-------------------|-----|-----|-----|





	"We live our!"

		
        E  E  E  E  E  E  E  E     E  E  E  E  E  E  E  E   
-----|--------------------------|--------------------------|
-----|--------------------------|--------------------------|
-----|--------------------------|--------------------------|
-----|--4-----4-----4--4-----4--|-----4-----4--4--4--4--4--|
-----|--4-----4-----4--4-----4--|-----4-----4--4--4--4--4--|
-----|--4-----4-----4--4-----4--|-----4-----4--4--4--4--4--|


  E  E  E  E  E  E  E  E     E  E  E  E  E  E  E  E   
--------------------------|--------------------------|
--------------------------|--------------------------|
--------------------------|--------------------------|
--2-----2-----2--2-----2--|-----2-----2--2--2--2--2--|
--2-----2-----2--2-----2--|-----2-----2--2--2--2--2--|
--2-----2-----2--2-----2--|-----2-----2--2--2--2--2--|


  E  E  E  E  E  E  E  E     E  E  E  E  E  E  E  E   
--------------------------|--------------------------|
--------------------------|--------------------------|
--------------------------|--------------------------|
--0-----0-----0--0-----0--|-----0-----0--0--0--0--0--|
--0-----0-----0--0-----0--|-----0-----0--0--0--0--0--|
--0-----0-----0--0-----0--|-----0-----0--0--0--0--0--|


  E  E  E  E  E  E  E  E     E  E  E  E  E  E  E  E   
--------------------------|--------------------------|
--------------------------|--------------------------|
--4-----4-----4--4-----4--|-----4-----4--4--4--4--4--|
--4-----4-----4--4-----4--|-----4-----4--4--4--4--4--|
--2-----2-----2--2-----2--|-----2-----2--2--2--2--2--|
--------------------------|--------------------------|


  E  E  E  E  E  E  E  E     E  E  E  E  E  E  E  E   
--------------------------|--------------------------|
--------------------------|--------------------------|
--------------------------|--------------------------|
--4-----4-----4--4-----4--|-----4-----4--4--4--4--4--|
--4-----4-----4--4-----4--|-----4-----4--4--4--4--4--|
--4-----4-----4--4-----4--|-----4-----4--4--4--4--4--|


  E  E  E  E  E  E  E  E     E  E  E  E  E  E  E  E   
--------------------------|--------------------------|
--------------------------|--------------------------|
--------------------------|--------------------------|
--2-----2-----2--2-----2--|-----2-----2--2--2--2--2--|
--2-----2-----2--2-----2--|-----2-----2--2--2--2--2--|
--2-----2-----2--2-----2--|-----2-----2--2--2--2--2--|


  E  E  E  E  E  E  E  E     E  E  E  E  E  E  E  E   
--------------------------|--------------------------|
--------------------------|--------------------------|
--------------------------|--------------------------|
--0-----0-----0--0-----0--|-----0-----0--0--0--0--0--|
--0-----0-----0--0-----0--|-----0-----0--0--0--0--0--|
--0-----0-----0--0-----0--|-----0-----0--0--0--0--0--|


  E  E  E  E  E  E  E  E     E  E  E  E  E  E  E  E   
--------------------------|--------------------------|
--------------------------|--------------------------|
--4-----4-----4--4-----4--|-----4-----4--4--4--4--4--|
--4-----4-----4--4-----4--|-----4-----4--4--4--4--4--|
--2-----2-----2--2-----2--|-----2-----2--2--2--2--2--|
--------------------------|--------------------------|





3rd Chorus

  E  E  E  E  E  E  E  E     E  E  E  E  E  E  E  E   
--------------------------|--------------------------|
--------------------------|--------------------------|
--------------------------|--------------------------|
--4--4--4--4--4--4--4--4--|--4--4--4--4--7--7--7--7--|
--4--4--4--4--4--4--4--4--|--4--4--4--4--7--7--7--7--|
--4--4--4--4--4--4--4--4--|--4--4--4--4--7--7--7--7--|


  E  E  E  E  E  E  E  E     E  E  E  E  E  E  E  E   
--------------------------|--------------------------|
--------------------------|--------------------------|
--------------------------|--------------------------|
--0--0--0--0--0--0--0--0--|--9--9--9--9--9--9--9--9--|
--0--0--0--0--0--0--0--0--|--9--9--9--9--9--9--9--9--|
--0--0--0--0--0--0--0--0--|--9--9--9--9--9--9--9--9--|


  E  E  E  E  E  E  E  E     E  E  E  E  E  E  E  E   
--------------------------|--------------------------|
--------------------------|--------------------------|
--------------------------|--------------------------|
--4--4--4--4--4--4--4--4--|--4--4--4--4--7--7--7--7--|
--4--4--4--4--4--4--4--4--|--4--4--4--4--7--7--7--7--|
--4--4--4--4--4--4--4--4--|--4--4--4--4--7--7--7--7--|


  E  E  E  E  E  E  E  E     E  E  E  E  E  E  E  E   
--------------------------|--------------------------|
--------------------------|--------------------------|
--------------------------|--------------------------|
--0--0--0--0--0--0--0--0--|--0--0--0--0--0--0--0--0--|
--0--0--0--0--0--0--0--0--|--0--0--0--0--0--0--0--0--|
--0--0--0--0--0--0--0--0--|--0--0--0--0--0--0--0--0--|


  E  E  E  E  E  E  E  E     E  E  E  E  E  E  E  E   
--------------------------|--------------------------|
--------------------------|--------------------------|
--------------------------|--------------------------|
--4--4--4--4--4--4--4--4--|--4--4--4--4--7--7--7--7--|
--4--4--4--4--4--4--4--4--|--4--4--4--4--7--7--7--7--|
--4--4--4--4--4--4--4--4--|--4--4--4--4--7--7--7--7--|


  E  E  E  E  E  E  E  E     E  E  E  E  E  E  E  E   
--------------------------|--------------------------|
--------------------------|--------------------------|
--------------------------|--------------------------|
--0--0--0--0--0--0--0--0--|--9--9--9--9--9--9--9--9--|
--0--0--0--0--0--0--0--0--|--9--9--9--9--9--9--9--9--|
--0--0--0--0--0--0--0--0--|--9--9--9--9--9--9--9--9--|


  E  E  E  E  E  E  E  E     E  E  E  E  E  E  E  E   
--------------------------|--------------------------|
--------------------------|--------------------------|
--------------------------|--------------------------|
--4--4--4--4--4--4--4--4--|--4--4--4--4--7--7--7--7--|
--4--4--4--4--4--4--4--4--|--4--4--4--4--7--7--7--7--|
--4--4--4--4--4--4--4--4--|--4--4--4--4--7--7--7--7--|


  E  E  E  E  E  E  E  E     E  E  E  E  E  E  E  E     Q    Q    E  Q    E   
--------------------------|--------------------------|-----------------------|
--------------------------|--------------------------|-----------------------|
--------------------------|--------------------------|-----------------------|
--0--0--0--0--0--0--0--0--|--0--0--0--0--0--0--0--0--|--4----4----4--4----4--|
--0--0--0--0--0--0--0--0--|--0--0--0--0--0--0--0--0--|--4----4----4--4----4--|
--0--0--0--0--0--0--0--0--|--0--0--0--0--0--0--0--0--|--4----4----4--4----4--|


  E  E  E  E  E  Q.        Q    Q    E  Q    E     E  E  E  E  E  E  E  E   
------------------------|-----------------------|--------------------------|
------------------------|-----------------------|--------------------------|
------------------------|-----------------------|--------------------------|
-----4-----4--4---------|--0----0----0--0----0--|-----0-----0--9--9--9--9--|
-----4-----4--4---------|--0----0----0--0----0--|-----0-----0--9--9--9--9--|
-----4-----4--4---------|--0----0----0--0----0--|-----0-----0--9--9--9--9--|


  Q    Q    E  Q    E     E  E  E  E  E  Q.        Q    Q    E  Q    E   
-----------------------|------------------------|-----------------------|
-----------------------|------------------------|-----------------------|
-----------------------|------------------------|-----------------------|
--4----4----4--4----4--|-----4-----4--4---------|--0----0----0--0----0--|
--4----4----4--4----4--|-----4-----4--4---------|--0----0----0--0----0--|
--4----4----4--4----4--|-----4-----4--4---------|--0----0----0--0----0--|


  E  E  E  E  E  E  E  E     Q    Q    E  Q    E     E  E  E  E  E  Q.      
--------------------------|-----------------------|------------------------|
--------------------------|-----------------------|------------------------|
--------------------------|-----------------------|------------------------|
-----0-----0--0--0--0--0--|--4----4----4--4----4--|-----4-----4--4---------|
-----0-----0--0--0--0--0--|--4----4----4--4----4--|-----4-----4--4---------|
-----0-----0--0--0--0--0--|--4----4----4--4----4--|-----4-----4--4---------|


  Q    Q    E  Q    E     E  E  E  E  E  E  E  E     Q    Q    E  Q    E   
-----------------------|--------------------------|-----------------------|
-----------------------|--------------------------|-----------------------|
-----------------------|--------------------------|-----------------------|
--0----0----0--0----0--|-----0-----0--9--9--9--9--|--4----4----4--4----4--|
--0----0----0--0----0--|-----0-----0--9--9--9--9--|--4----4----4--4----4--|
--0----0----0--0----0--|-----0-----0--9--9--9--9--|--4----4----4--4----4--|


  E  E  E  E  E  Q.        Q    Q    E  Q    E     E  E  E  E  E  E  E  E   
------------------------|-----------------------|--------------------------|
------------------------|-----------------------|--------------------------|
------------------------|-----------------------|--------------------------|
-----4-----4--4---------|--0----0----0--0----0--|-----0-----0--0--0--0--0--|
-----4-----4--4---------|--0----0----0--0----0--|-----0-----0--0--0--0--0--|
-----4-----4--4---------|--0----0----0--0----0--|-----0-----0--0--0--0--0--|



End

  E  E  E  E  E  E  E  E     E  E  E  E  E  Q.       
--------------------------|------------------------||
--------------------------|------------------------||
--------------------------|------------------------||
--4-----4-----4--4-----4--|-----4-----4--4---------||
--4-----4-----4--4-----4--|-----4-----4--4---------||
--4-----4-----4--4-----4--|-----4-----4--4---------||




Duration Legend
---------------
W - whole
H - half
Q - quarter
E - 8th
S - 16th
T - 32nd
X - 64th
. - note dotted
|-n-|  - n-tuplets


Tablature Legend
----------------
L - tied note
x - dead note
g - grace note
(n) - ghost note
> - accentuded note
NH - natural harmonic
AH - artificial harmonic
TH - tapped harmonic
SH - semi harmonic
PH - pitch harmonic
h - hammer on
p - pull off
b - bend
br - bendRelease
pb - preBend
pbr - preBendRelease
brb - bendReleaseBend
\n/ - tremolo bar dip
\n - tremolo bar dive
-/n - tremolo bar Release up
/n\ - tremolo bar inverted dip
/n - tremolo bar return
-\n - tremolo bar Release down
S - shift slide
s - legato slide
/ -  slide into from below or out of upwards
\ -  slide into from above or out of downwards
~ - vibrato
W - wide vibrato
tr - trill
TP - tremolo picking
T - tapping
S - slap
P - pop
< - fade in
^ - brush up
v - brush down
Tap to rate this tab
# A B C D E F G H I J K L M N O P Q R S T U V W X Y Z