Song name
# A B C D E F G H I J K L M N O P Q R S T U V W X Y Z

This Day Forward - Cupids Diary tab

THIS DAY FORWARD - CUPID'S DIARY

e|-----------------------------------------|
b|-----------------------------------------|
G|-5/7/9-5---------------------------------|
D|-------3---------------------------------|
A|-3/5/7-3----3--3--3--3--3--3--3--3--3--3-|
D|-------3----3--3--3--3--3--3--3--3--3--3-|
              P  M  P  M  P  M  P  M  P  M

e|----------------------------------|
b|----------------------------------|
G|-5/7/9-5----------3-------3-----3-|
D|-------3--------------------------|
A|-3/5/7-3----1-1-1---1-1-1---1-1---|
D|-------3--------------------------|
              P MPM   P MPM   P M

    e|---------------------------------|
    b|---------------------------------|
GTR G|-3p2----3p2----3p2----3p2----3p2-|
 1  D|---------------------------------|
    A|---------------------------------|
    D|---------------------------------|

    e|---------------------------------|
    b|---------------------------------|
GTR G|-----10------5------8------3-----|
 2  D|---------------------------------|
    A|-----8-------3------6------1-----|
    D|---------------------------------|

e|-------------------------------------------------|
b|-------------------------------------------------|
G|-------------------------------3p2-2-------3p2-2-|
D|-------------------------------------------------|
A|-8-8-8-8-8-8-7-7-7-7-7-7-0-0-0-------0-0-0-------|
D|-8-8-8-8-8-8-7-7-7-7-7-7-0-0-0-------0-0-0-------|
   P M P M P M P M P M P M PMP M       PMP M

e|-------------|
b|-------------|
G|-------3-2-2-|
D|-------------|
A|-0-0-0-------|
D|-0-0-0-------|

e|-0----------0--------0--10---------------0-10----------------0--10--------|
b|-6----------6--------10----8-------------6----8--------------10----8------|
G|-10----10-------10-----------10-----10----------10-----10------------10---|
D|-8---8----8---8----8------------7-8----8-----------7-8-----8------------7-|
A|--------------------------------------------------------------------------|
D|--------------------------------------------------------------------------|

e|------10---------|
b|-----------------|
G|---10----10---10-|
D|-8----------8----|
A|-----------------|
D|-----------------|

e|-- x2 -| x7 ---|-----|
b|-------|-------|-5h6-|
G|-3-----|-2-----|-----| x3
D|-------|-------|-----|
A|---0-0-|---0-0-|-----|
D|---0-0-|---0-0-|-----|

e|-- x2 -| x6 ---|-------------|
b|-------|-------|-------------|
G|-3-----|-2-----|-3-3-3-5-5-5-| 
D|-------|-------|-------------|
A|---0-0-|---0-0-|-1-1-1-3-3-3-|
D|---0-0-|---0-0-|-------------|

e|---------------------------------|
b|-6p5-5---------------------------|
G|-------9p7-7-2-2-2-2-3-3-3-5-5-5-|
D|---------------------------------| x4
A|-------------0-0-0-0-1-1-1-3-3-3-|
D|---------------------------------|

    e|---------------------------------|
    b|-6p5-5---------------------------|
GTR G|-------9p7-7-2-2-2-2-3-3-3-5-5-5-|
 1  D|---------------------------------| x4
    A|-------------0-0-0-0-1-1-1-3-3-3-|
    D|---------------------------------|

    e|-6p5-----------------------------|
    b|-----6-5-------------------------|
GTR G|---------2---3---2---3---5--3--2-|
 2  D|---------------------------------| x4
    A|---------------------------------|
    D|---------------------------------|

e|-------------------------------|
b|-------------------------------|
G|----------------------------4--|
D|-0-----0-----0-----0--------3--|
A|-0-----0-----0-----0------0-2--|
D|-0-----0-----0-----0------0----|
                            PM

e|-------------------------|
b|-------------------------|
G|-4-------4---------4---4-|
D|-3-------3---------3---3-|
A|-2-0-0-0-2-0-0-0-0-2-0-2-|
D|---0-0-0---0-0-0-0---0---|
     PMP M   P M P M  PM

END
Tap to rate this tab
 
# A B C D E F G H I J K L M N O P Q R S T U V W X Y Z