Song name
# A B C D E F G H I J K L M N O P Q R S T U V W X Y Z

This Day Forward - My Unbroken Reflection tab

THIS DAY FORWARD - MY UNBROKEN REFLECTION
 
     E|--------------------------------|
     B|----------------3---------------|
GTR  G|----2-----2-----------2-----2---|    
 1   D|0-0---0-0---0-0---0-0---0-0---0-|              
     A|--------------------------------|
     D|--------------------------------|
       P M   P M   P M   P M   P M   PM    

     E|---------------------------------|
     B|---------------------------------|
GTR  G|---------------------------------|    
 2   D|---------------------------------|              
     A|-0-0-0-0-0-0-0-0-0-0-0-0-0-0-0-0-|
     D|-0-0-0-0-0-0-0-0-0-0-0-0-0-0-0-0-|
        P M P M P M P M P M P M P M P M 

     E|---------------------------------|
     B|---------------------------------|
GTR  G|-----2-----2-----3-----2-----2h3-|    
 1   D|---------------------------------|              
     A|-1-1---1-1---1-1---1-1---1-1-----|
     D|---------------------------------|
        P M   P M   P M   P M   P M      

     E|---------------------------------|
     B|---------------------------------|
GTR  G|---------------------------------|    
 2   D|-3-3-3-3-3-3-3-3-3-3-3-3-3-3-3-3-|              
     A|-1-1-1-1-1-1-1-1-1-1-1-1-1-1-1-1-|
     D|---------------------------------|
        P M P M P M P M P M P M P M P M

     E|----------------------------------|
     B|----------------------------------|
GTR  G|-----------------------3--3/5/7/8-|    
1+2  D|-0---------------------3----------| x2              
     A|-0---------0-0-0-0-0-0-1--1/3/5/6-|
     D|-0---------0-0-0-0-0-0-1----------|
                   P M P M P M 

     E|----------------------------------|
     B|----------------------------------|
GTR  G|-----------------------3--3/5/7/8-|    
1+2  D|-0---------------------3----------| x4              
     A|-0---------0-0-0-0-0-0-1--1/3/5/6-|
     D|-0---------0-0-0-0-0-0-1----------|
                   P M P M P M 

     E|-------------------------------------------------|
     B|---------4p3---------4p3---------4p3---------4p3-|
GTR  G|-3p2-3p2-----3p2-3p2-----3p2-3p2-----3p2-3p2-----|    
 2   D|-------------------------------------------------| x4              
     A|-------------------------------------------------|
     D|-------------------------------------------------|

     E|-----------------------------------------------|
     B|-------2/3-------2/3-------2/3-------2/3-------|
GTR  G|-----------------------------------------------|    
1+2  D|-0-0-0-0/1-0-0-0-0/1-0-0-0-0/1-0-0-0-0/1-0-0-0-|              
     A|-0-0-0-----0-0-0-----0-0-0-----0-0-0-----0-0-0-|
     D|-----------------------------------------------|

     E|----------------------------------------|
     B|----------------------------------------|
GTR  G|-3-3-3-3-3-3-3-3-5-5-5-5-7-7-7-7--------|    
1+2  D|----------------------------------------|              
     A|-1-1-1-1-1-1-1-1-3-3-3-3-5-5-5-5--------|
     D|----------------------------------------|

     E|-----------------------------------------------|
     B|-------2/3-------2/3-------2/3-------2/3-------|
GTR  G|-----------------------------------------------|    
1+2  D|-0-0-0-0/1-0-0-0-0/1-0-0-0-0/1-0-0-0-0/1-0-0-0-|              
     A|-0-0-0-----0-0-0-----0-0-0-----0-0-0-----0-0-0-|
     D|-----------------------------------------------|

     E|-----------------------------------------|
     B|-----------------------------------------|
GTR  G|-11---11---11---11---11---11---11---11---|    
 1   D|-8----8----8----8----8----8----8----8----|              
     A|-10---10---10---10---10---10---10---10---|
     D|-8----8----8----8----8----8----8----8----|

     E|-----------------------------------------------|
     B|-------------------------------8---8--8--8--8--|
GTR  G|-11---11---11---11---11---11---11--11-11-11-11-|    
 2   D|-8----8----8----8----8----8--------------------|              
     A|-10---10---10---10---10---10---10--10-10-10-10-|
     D|-8----8----8----8----8----8--------------------|

     E|-----------------------------------------|
     B|-----------------------------------------|
GTR  G|-----------------------------------------|    
1+2  D|-0/2-------0/2-------0/2-------0/2-------|              
     A|-0/2-0-0-0-0/2-0-0-0-0/2-0-0-0-0/2-0-0-0-|
     D|-0/2-0-0-0-0/2-0-0-0-0/2-0-0-0-0/2-0-0-0-|
             P MPM     P MPM     P MPM     P MPM

     E|-----------------------------------------|
     B|-----------------------------------------|
GTR  G|-----------------------------------------|    
1+2  D|-----------------------------------------|              
     A|-2\0-0-0-0-0-0-0-0-0-2\0-0-0-0-0-0-0-0-0-|
     D|-2\0-0-0-0-0-0-0-0-0-2\0-0-0-0-0-0-0-0-0-|
             P M P M P M P M     P M P M P M P M

     Eb|----------------------------------------|
     Bb|----------------------------------------|
GTR  Gb|-----3-----2-----3-----0-----0h2--------| x3    
 1   Db|-0-0---0-0---0-0---0-0---0-0------------|              
     Ab|----------------------------------------|
     Db|----------------------------------------|

     Eb|----------------------------------------|
     Bb|----------------------------------------|
GTR  Gb|----------------------------------------| x3    
 2   Db|----------------------------------------|              
     Ab|-0-0-------0--0--0--0--0--0--0--0-------|
     Db|-0-0-------0--0--0--0--0--0--0--0-------|
         P M       P  M  P  M  P  M  P  M

     Eb|----------------------------------------|
     Bb|-----------1----------------------------|
GTR  Gb|-----2-----------3-----2-----2h3--------|    
 1   Db|-3-3---3-3---3-3---3-3---3-3------------|              
     Ab|----------------------------------------|
     Db|----------------------------------------|

     Eb|----------------------------------------|
     Bb|----------------------------------------|
GTR  Gb|----------------------------------------|    
 2   Db|-3-3-3-3-3-3-3-3-3-3-3-3-3-3-3-3--------|              
     Ab|-3-3-3-3-3-3-3-3-3-3-3-3-3-3-3-3--------|
     Db|-3-3-3-3-3-3-3-3-3-3-3-3-3-3-3-3--------|

-------------------------------------------------

     Eb|------------- x2 ----------------|
     Bb|---------------------------------|
GTR  Gb|-----3-----2-----3-----0-----0h2-|  
1+2  Db|-0-0---0-0---0-0---0-0---0-0-----|              
     Ab|---------------------------------|
     Db|---------------------------------|

     Eb|---------------------------------|
     Bb|---------------------------------|
GTR  Gb|-----3-----2-----3-----0-----0h2-|  
1+2  Db|-3-3---3-3---3-3---3-3---3-3-----|              
     Ab|---------------------------------|
     Db|---------------------------------|

     Eb|---------------------------------|
     Bb|----------1----------------------|
GTR  Gb|----2-----------3-----2------2h3-|  
1+2  Db|3-3---3-3---3-3---3-3----3-3-----|              
     Ab|---------------------------------|
     Db|---------------------------------|

-------------------------------------------------

     Eb|----------------------------------------------------|
     Bb|------7----7----7----7----------9----9----9----9----|
GTR  Gb|-8h10---10---10---10---10-10h11---11---11---11---11-|    
 1   Db|----------------------------------------------------|              
     Ab|----------------------------------------------------|
     Db|----------------------------------------------------|

END
Tap to rate this tab
 
# A B C D E F G H I J K L M N O P Q R S T U V W X Y Z