Guitaretab - guitar tabs
Song name
# A B C D E F G H I J K L M N O P Q R S T U V W X Y Z

This Holiday Life - Motivation tab

Artist:This Holiday Life
Song:Motivation(2007)
CD:N/A
Tuning:Standard
Tabbed by:fret13@columbus.rr.com

******www.thisHOLIDAYlife.com********
or there is a link on
******www.myspace.com/thisholidaylife******
they are signed to *Dare To Dream Records*

Great song.
Great Band too they should be big in the future.

Acoustic Guitar

Intro
|-6-6---6--6-6---6-6-6---6--6-6--6-6-6-6-|
|-7-7---7--7-7---7-7-7---7--7-7--7-9-7-9-|
|-4-4---4--4-4---4-8-8---8--6-6--6-6-6-6-|
|-4-4-x-4--4-4-x-4-8-8---8--8-8--8-8-8-8-|
|------------------6-6---6--9-9--9-9-9-9-|
|----------------------------------------|

|-6-6---6--6-6---6-6-6---6--6-6--6-6-6-6-|
|-7-7---7--7-7---7-7-7---7--7-7--7-9-7-6-|
|-4-4---4--4-4---4-8-8---8--6-6--6-6-6-6-|
|-4-4-x-4--4-4-x-4-8-8---8--8-8--8-8-8-8-|
|------------------6-6---6--9-9--9-9-9-9-|
|----------------------------------------|

Verse/Chorus
|-6-6-6-6-6-6-6-6-6-6-6-6-6-6-6-6-6-6-|
|-7-7-7-7-7-7-7-7-7-7-7-7-7-7-7-9-7-9-|
|-4-4-4-4-4-4-4-4-8-8-8-8-6-6-6-6-6-6-|
|-4-4-4-4-4-4-4-4-8-8-8-8-8-8-8-8-8-8-|
|-----------------6-6-6-6-9-9---------|
|-------------------------------------|

|-6-6-6-6-6-6-6-6-6-6-6-6-6-6-6-6-6-6-|
|-7-7-7-7-7-7-7-7-7-7-7-7-7-7-7-9-7-6-|
|-4-4-4-4-4-4-4-4-8-8-8-8-6-6-6-6-6-6-|
|-4-4-4-4-4-4-4-4-8-8-8-8-8-8-8-8-8-8-|
|-----------------6-6-6-6-9-9---------|
|-------------------------------------|

|-6-6-6-6-6-6-6-6-6-6-6-6-6-6-6-6-6-6-|
|-7-7-7-7-7-7-7-7-7-7-7-7-7-7-7-9-7-9-|
|-4-4-4-4-4-4-4-4-8-8-8-8-6-6-6-6-6-6-|
|-4-4-4-4-4-4-4-4-8-8-8-8-8-8-8-8-8-8-|
|-----------------6-6-6-6-9-9---------|
|-------------------------------------|

|-6-6-6-6-6-6-6-6-6-6-6-6-6-6~-|
|-7-7-7-7-7-7-7-7-7-7-7-7-7-7~-|
|-4-4-4-4-4-4-4-4-8-8-8-8-6-6~-|
|-4-4-4-4-4-4-4-4-8-8-8-8-8-8~-|
|-----------------6-6-6-6-9-9~-|
|------------------------------|

Intro
|-6-6---6--6-6---6-6-6---6--6-6--6-6-6-6-|
|-7-7---7--7-7---7-7-7---7--7-7--7-9-7-9-|
|-4-4---4--4-4---4-8-8---8--6-6--6-6-6-6-|
|-4-4-x-4--4-4-x-4-8-8---8--8-8--8-8-8-8-|
|------------------6-6---6--9-9--9-9-9-9-|
|----------------------------------------|

|-6-6---6--6-6---6-6-6---6--6-6--6-6-6-6-|
|-7-7---7--7-7---7-7-7---7--7-7--7-9-7-6-|
|-4-4---4--4-4---4-8-8---8--6-6--6-6-6-6-|
|-4-4-x-4--4-4-x-4-8-8---8--8-8--8-8-8-8-|
|------------------6-6---6--9-9--9-9-9-9-|
|----------------------------------------|

Verse/Chorus x2
|-6-6-6-6-6-6-6-6-6-6-6-6-6-6-6-6-6-6-|
|-7-7-7-7-7-7-7-7-7-7-7-7-7-7-7-9-7-9-|
|-4-4-4-4-4-4-4-4-8-8-8-8-6-6-6-6-6-6-|
|-4-4-4-4-4-4-4-4-8-8-8-8-8-8-8-8-8-8-|
|-----------------6-6-6-6-9-9---------|
|-------------------------------------|

|-6-6-6-6-6-6-6-6-6-6-6-6-6-6-6-6-6-6-|
|-7-7-7-7-7-7-7-7-7-7-7-7-7-7-7-9-7-6-|
|-4-4-4-4-4-4-4-4-8-8-8-8-6-6-6-6-6-6-|
|-4-4-4-4-4-4-4-4-8-8-8-8-8-8-8-8-8-8-|
|-----------------6-6-6-6-9-9---------|
|-------------------------------------|

|-6-6-6-6-6-6-6-6-6-6-6-6-6-6-6-6-6-6-|
|-7-7-7-7-7-7-7-7-7-7-7-7-7-7-7-9-7-9-|
|-4-4-4-4-4-4-4-4-8-8-8-8-6-6-6-6-6-6-|
|-4-4-4-4-4-4-4-4-8-8-8-8-8-8-8-8-8-8-|
|-----------------6-6-6-6-9-9---------|
|-------------------------------------|

|-6-6-6-6-6-6-6-6-6-6-6-6-6-6~-|
|-7-7-7-7-7-7-7-7-7-7-7-7-7-7~-|
|-4-4-4-4-4-4-4-4-8-8-8-8-6-6~-|
|-4-4-4-4-4-4-4-4-8-8-8-8-8-8~-|
|-----------------6-6-6-6-9-9~-|
|------------------------------|

Interlude - Doesnt play

Intro
|-6-6---6--6-6---6-6-6---6--6-6--6-6-6-6-|
|-7-7---7--7-7---7-7-7---7--7-7--7-9-7-9-|
|-4-4---4--4-4---4-8-8---8--6-6--6-6-6-6-|
|-4-4-x-4--4-4-x-4-8-8---8--8-8--8-8-8-8-|
|------------------6-6---6--9-9--9-9-9-9-|
|----------------------------------------|

|-6-6---6--6-6---6-6-6---6--6-6--6-6-6-6-|
|-7-7---7--7-7---7-7-7---7--7-7--7-9-7-6-|
|-4-4---4--4-4---4-8-8---8--6-6--6-6-6-6-|
|-4-4-x-4--4-4-x-4-8-8---8--8-8--8-8-8-8-|
|------------------6-6---6--9-9--9-9-9-9-|
|----------------------------------------|

Verse/Chorus x2
|-6-6-6-6-6-6-6-6-6-6-6-6-6-6-6-6-6-6-|
|-7-7-7-7-7-7-7-7-7-7-7-7-7-7-7-9-7-9-|
|-4-4-4-4-4-4-4-4-8-8-8-8-6-6-6-6-6-6-|
|-4-4-4-4-4-4-4-4-8-8-8-8-8-8-8-8-8-8-|
|-----------------6-6-6-6-9-9---------|
|-------------------------------------|
[ Tab from: http://www.guitaretab.com/t/this-holiday-life/151860.html ]
|-6-6-6-6-6-6-6-6-6-6-6-6-6-6-6-6-6-6-|
|-7-7-7-7-7-7-7-7-7-7-7-7-7-7-7-9-7-6-|
|-4-4-4-4-4-4-4-4-8-8-8-8-6-6-6-6-6-6-|
|-4-4-4-4-4-4-4-4-8-8-8-8-8-8-8-8-8-8-|
|-----------------6-6-6-6-9-9---------|
|-------------------------------------|

|-6-6-6-6-6-6-6-6-6-6-6-6-6-6-6-6-6-6-|
|-7-7-7-7-7-7-7-7-7-7-7-7-7-7-7-9-7-9-|
|-4-4-4-4-4-4-4-4-8-8-8-8-6-6-6-6-6-6-|
|-4-4-4-4-4-4-4-4-8-8-8-8-8-8-8-8-8-8-|
|-----------------6-6-6-6-9-9---------|
|-------------------------------------|

|-6-6-6-6-6-6-6-6-6-6-6-6-6-6~-|
|-7-7-7-7-7-7-7-7-7-7-7-7-7-7~-|
|-4-4-4-4-4-4-4-4-8-8-8-8-6-6~-|
|-4-4-4-4-4-4-4-4-8-8-8-8-8-8~-|
|-----------------6-6-6-6-9-9~-|
|------------------------------|

Intro
|-6-6---6--6-6---6-6-6---6--6-6--6-6-6-6-|
|-7-7---7--7-7---7-7-7---7--7-7--7-9-7-9-|
|-4-4---4--4-4---4-8-8---8--6-6--6-6-6-6-|
|-4-4-x-4--4-4-x-4-8-8---8--8-8--8-8-8-8-|
|------------------6-6---6--9-9--9-9-9-9-|
|----------------------------------------|

|-6-6---6--6-6---6-6-6---6--6-6--6-6-6-6-|
|-7-7---7--7-7---7-7-7---7--7-7--7-9-7-6-|
|-4-4---4--4-4---4-8-8---8--6-6--6-6-6-6-|
|-4-4-x-4--4-4-x-4-8-8---8--8-8--8-8-8-8-|
|------------------6-6---6--9-9--9-9-9-9-|
|----------------------------------------|
================================================================
Guitar 1
Comes in at Chorus
Chorus
|---9---9-----6--6h7-6---6h7-6---|
|-7---7---7\4----------4-------2-|
|--------------------------------|
|--------------------------------|
|--------------------------------|
|--------------------------------|

|---9---9-----6--6h7-6---6h7-6-----|
|-7---7---7\4----------4-------2/4-|
|----------------------------------|
|----------------------------------|
|----------------------------------|
|----------------------------------|

Verse - Doesnt play

Chorus
|---9---9-----6--6h7-6---6h7-6---|
|-7---7---7\4----------4-------2-|
|--------------------------------|
|--------------------------------|
|--------------------------------|
|--------------------------------|

|---9---9-----6--6h7-6---6h7-6---|
|-7---7---7\4----------4-------2-|
|--------------------------------|
|--------------------------------|
|--------------------------------|
|--------------------------------|

|---9---9-----6--6h7-6---6h7-6---|
|-7---7---7\4----------4-------2-|
|--------------------------------|
|--------------------------------|
|--------------------------------|
|--------------------------------|

|---9---9-----6--6h7-6---6h7-6-----|
|-7---7---7\4----------4-------2/4-|
|----------------------------------|
|----------------------------------|
|----------------------------------|
|----------------------------------|

Interlude
|---------------------18-----------|x4
|------------------------21--19----|
|-20---18------20--18-----------20-|
|---------20-----------------------|
|----------------------------------|
|----------------------------------|

|----------------------|
|----------------------|
|-18-18-18-18-18-18-18-|
|----------------------|
|----------------------|
|----------------------|

Solo
|----------------------------------------------|x2
|-------------------------14-11--9h11--9h11----|
|----------------------10-10-10--8-----8----11-|
|-13b15-13--13b15-13---13-13----10-------------|
|----------------------------------------------|
|----------------------------------------------|

Chorus
|---9---9-----6--6h7-6---6h7-6---|
|-7---7---7\4----------4-------2-|
|--------------------------------|
|--------------------------------|
|--------------------------------|
|--------------------------------|

|---9---9-----6--6h7-6---6h7-6---|
|-7---7---7\4----------4-------2-|
|--------------------------------|
|--------------------------------|
|--------------------------------|
|--------------------------------|

|---9---9-----6--6h7-6---6h7-6---|
|-7---7---7\4----------4-------2-|
|--------------------------------|
|--------------------------------|
|--------------------------------|
|--------------------------------|

|---9---9-----6--6h7-6---6h7-6-----|
|-7---7---7\4----------4-------2/7-|
|----------------------------------|
|----------------------------------|
|----------------------------------|
|----------------------------------|

Its really a great song so check it out