Song name
# A B C D E F G H I J K L M N O P Q R S T U V W X Y Z

This Is Hell - The Polygraph Cheaters tab

--------------------------------------------------------------------------
                  The Polygraph Cheaters - This Is Hell
----------------------------------------------------------------------------
Db tuning (Db Ab Db Gb Bb eb)

Intro x1
|-----------------------------------------|
|-----------------------------------------|
|-----------------------------------------|
|-3-33-0-3-50---3-33-0-3-50---3-33-0-3-50-|
|-3-33-0-3-50---3-33-0-3-50---3-33-0-3-50-|
|-3-33-0-3-50---3-33-0-3-50---3-33-0-3-50-|

Verse x2
|------------------------------------------|
|------------------------------------------|
|------------------------------------------|
|-0-0000000000000000-3-3-00000-5-5-00-3530-|
|-0-0000000000000000-3-3-00000-5-5-00-3530-|
|-0-0000000000000000-3-3-00000-5-5-00-3530-|
PM  xxxxxxxxxxxxx

|-------------------------------------|
|-----------------------66666-555/666-|
|-----------------------55555-xxx xxx-|
|-0-0000000000000000-33-33333-222/333-|
|-0-0000000000000000-33-33333---------|
|-0-0000000000000000-33-33333---------|
PM  xxxxxxxxxxxxx

Chorus
|-------------------------------------------------|
|-------------------------------------------------|
|-----99999-----1010101010-----77777--------------|
|-0-0-xxxxx-0-0-x-x-x-x-x--0-0-xxxxx-33-0-3-0-350-|
|-0-0-77777-0-0-8-8-8-8-8--0-0-55555-33-0-3-0-350-|
|-0-0-------0-0------------0-0-------33-0-3-0-350-|
                                    \            /
                                     \          /
                                      this is the
                                     rhythm guitar
|-------------------------------------------------------|
|-------------------------------------------------------|
|-----99999-----1010101010-----121212121212121212121212-|
|-0-0-xxxxx-0-0-x-x-x-x-x--0-0-xxxxxxxxxxxxxxxxxxxxxxxx-|
|-0-0-77777-0-0-8-8-8-8-8--0-0-101010101010101010101010-|
|-0-0-------0-0------------0-0--------------------------|

Pre-chorus
|---------------|
|-----6p5p3h5h6-|
|---------------|
|-0-------------|
|-0-------------|
|-0-------------|

Verse x2
|------------------------------------------|
|------------------------------------------|
|------------------------------------------|
|-0-0000000000000000-3-3-00000-5-5-00-3530-|
|-0-0000000000000000-3-3-00000-5-5-00-3530-|
|-0-0000000000000000-3-3-00000-5-5-00-3530-|
PM  xxxxxxxxxxxxx

|-------------------------------------|
|-----------------------66666-555/666-|
|-----------------------55555-xxx xxx-|
|-0-0000000000000000-33-33333-222/333-|
|-0-0000000000000000-33-33333---------|
|-0-0000000000000000-33-33333---------|
PM  xxxxxxxxxxxxx

Chorus
|-------------------------------------------------|
|-------------------------------------------------|
|-----99999-----1010101010-----77777--------------|
|-0-0-xxxxx-0-0-x-x-x-x-x--0-0-xxxxx-33-0-3-0-350-|
|-0-0-77777-0-0-8-8-8-8-8--0-0-55555-33-0-3-0-350-|
|-0-0-------0-0------------0-0-------33-0-3-0-350-|


|-------------------------------------------------------|
|-------------------------------------------------------|
|-----99999-----1010101010-----121212121212121212121212-|
|-0-0-xxxxx-0-0-x-x-x-x-x--0-0-xxxxxxxxxxxxxxxxxxxxxxxx-|
|-0-0-77777-0-0-8-8-8-8-8--0-0-101010101010101010101010-|
|-0-0-------0-0------------0-0--------------------------|

Bridge x3
|---------------------------|
|-------6p5-6------6p5-6----|
|-----5----------5----------|
|-0--3-3---3----3-3-----3-0-|
|-0-----------------------0-|
|-0-----------------------0-|

Breakdown
Part 1 x5
|-------------------------------------------------|
|-------------------------------------------------|
|-----99999-----1010101010-----77777--------------|
|-0-0-xxxxx-0-0-x-x-x-x-x--0-0-xxxxx-33-0-3-0-350-|
|-0-0-77777-0-0-8-8-8-8-8--0-0-55555-33-0-3-0-350-|
|-0-0-------0-0------------0-0-------33-0-3-0-350-|

Part 2 x2
|----------------------------|
|----------------------------|
|----------------------------|
|-0-0--0-0--0-0-33-0-3-0-350-|
|-0-0--0-0--0-0-33-0-3-0-350-|
|-0-0--0-0--0-0-33-0-3-0-350-|

Outro
|------|
|------|
|------|
|-0-00-|
|-0-00-|
|-0-00-|
PMx x x










| /  slide up
| \  slide down
| h  hammer-on
| p  pull-off
| ~  vibrato
| +  harmonic
| x  Mute note
============================================================================
Tap to rate this tab
# A B C D E F G H I J K L M N O P Q R S T U V W X Y Z