Guitaretab - guitar tabs
Song name
# A B C D E F G H I J K L M N O P Q R S T U V W X Y Z

This Is Hell - 4805 tab

This Is Hell plays in half step so tune to that.
You can figure out the timing, it's not hard.


Band: This Is Hell
Song: 4.8.05
Album: Sundowning
[ Tab from: http://www.guitaretab.com/t/this-is-hell/95244.html ]
eb|---------------------------------------------------------0-------|
Bb|--------------------------0--------------------------------------|
Gb|----------0-----------0-----0-----------0-------------------0----|
Db|--------5----5------4---4-----4-----0------0-------0-----------0-|
Ab|------7---------7-5-------------5-3---3-------3-2-----2----------|
Eb|----0------------------------------------------------------------|

eb|-----------------------------------------0---------------3~-|
Bb|------------------------0----0---------------------------2~-|
Gb|----------0---------------0----0-----2------2------2---2-0~-|
Db|--------5----0---7-7/9-----------0-5---5-------5-4---4---4~-|
Ab|------7----------9-9/10-------------------------------------|
Eb|----0-------------------------------------------------------|

First real tab so yeah. Enjoy.
I don't care if you copy what I have and change small parts to make it better too. 
do if you notice a flaw.
Related for 4805 tab