Song name
# A B C D E F G H I J K L M N O P Q R S T U V W X Y Z

This Is Not A Game Of Who The Fuck Are You - One Last Dance tab

This is the official version of the song from the album.so make sure not to get confused 
with the demo.It kinda got me a little but anyways i hope you like it and rate plz :)

Verse:

e|-----------------------------------------------------------9----------|
B|-5/6-------------5/6--------------5h6-5h6-5h6-5h6-5h6-------------9---|
G|-----8--6------------8-6-------6----------------------8--6---8-6------|
D|----------8-6-8----------8-6-8--------------------------------------8-|
A|----------------------------------------------------------------------|
E|----------------------------------------------------------------------|

e|---------------------------------------------------------9----------|
B|-5/6-----------5/6--------------5h6-5h6-5h6-5h6-5h6-------------9---|
G|-----8--6----------8-6-------6----------------------8--6---8-6------|
D|----------8-6----------8-6-8--------------------------------------8-|
A|--------------------------------------------------------------------|
E|--------------------------------------------------------------------|

Chorus:

e|------------------------------------------------------------------------|
B|------------------------------------------------------------------------|
G|------------------------------------------------------------------------|
D|-----------3---1-----1---------1~--1h2p1-------------3---1-----1--------|
A|-1~--1-4-1---1---1-4---4~--1-4-----------4-1~--1-4-1---1---1-4---4~--1~-|
E|------------------------------------------------------------------------|

e|--------------------------------------------------------------------------|
B|-------------2------------------------------------------------------------|
G|---------------3-2-1------------------------------------------------------|
D|---------------------3-2-1---------1~--1h2p1-------------3---1-----1------|
A|-0-1~--1-4-1---------------4~--1-4-----------4-1~--1-4-1---1---1-4---4~-1-|
E|--------------------------------------------------------------------------|

Verse(x1)

Verse played higher:

e|----------------------------------------------------------------12------|
B|-7/9----------------7/9-----------------7h9-7h9-7h9-7h9-7h9-7-----------|
G|-----11--9--------------11-9---------9------------------------9----11-9-|
D|-----------11-9-11-----------11-9-11------------------------------------|
A|------------------------------------------------------------------------|
E|------------------------------------------------------------------------|

--------------------------------------------------------------------12------|
-12-----7/9-------------7/9-----------------7h9-7h9-7h9-7h9-7h9-7-----------|
------------11--9-----------11-9---------9------------------------9----11-9-|
----11------------11-9-----------11-9-11------------------------------------|
----------------------------------------------------------------------------|
----------------------------------------------------------------------------|

-------|
-12----|
-------|
----11-|
-------|
-------|

Chorus played higher:

e|---------------------------------------------------------------------------|
B|---------------------------------------------------------------------------|
G|---------------------------------------------------------------------------|
D|-----------6---4-----4---------4~--4h5p4-------------6---4-----4-----------|
A|-4~--4-7-4---4---4-7---7~--4-7-----------7-4~--4-7-4---4---4-7---7-6b7-4---|
E|---------------------------------------------------------------------------|

           Play the first part of the chorus again doing guitar 1 or 2:
           This is guitar 2:

---------| e|---------------------------------------------------------------|
---------| B|-----------9---7-----7---------7~--7h9p7-------------9---7-----|
---------| G|-6~--6-9-6---6---6-9---9~--6-9-----------9-6~--6-9-6---6---6-9-|
---------| D|---------------------------------------------------------------|
-2-2-4-4-| A|---------------------------------------------------------------|
---------| E|---------------------------------------------------------------|
            Chorus played even higher XD lol with solo :):

           Guitar 2:
---------| e|----------------------------------------------------------------|
-7-------| B|------------11---10------9------9~--9b(11)7-------7-9-7~--------|
---9~--6-| G|-8~--8-11-8----8----8-11---11~--------------8~--8---------8~----|
---------| D|----------------------------------------------------------------|
---------| A|----------------------------------------------------------------|
---------| E|----------------------------------------------------------------|

-----------11----9b(11)-11p10p9----------------------------------------------|
--------11----11----------------11p10p9-11-9----------------------9b(11)-9h7-|
-8~--11--------------------------------------11-8~--11-8------8~-------------|
---------------------------------------------------------8h11----------------|
-----------------------------------------------------------------------------|
-----------------------------------------------------------------------------|

----------------14-14b(16)----------------------------------------------------|
------9~-----16------------16-14----------------------------------------------|
-8-11-----15---------------------15-13-15~------6--------6--------6---6-8-----|b(9)
--------------------------------------------6h8---8--6h8---8--6h8---8---------|
------------------------------------------------------------------------------|
------------------------------------------------------------------------------|

--------------------------------|
--------------------------------|
-6---(x3)-----6---6-8b(9)-6-----|
---8------6h8---8-----------8~--|
--------------------------------|
--------------------------------|
Tap to rate this tab
 
# A B C D E F G H I J K L M N O P Q R S T U V W X Y Z