Song name
# A B C D E F G H I J K L M N O P Q R S T U V W X Y Z

This Love - Motions tab

----------------------------------------------------------------------------
                             MOTIONS - This Love
----------------------------------------------------------------------------
Tabbed by: Zach O'Hara
Email: zohara3946@gmail.com

Tuning: Dropped C#

Intro w/ LOTS of delay and a small amount of drive/dirt almost clean
eb|------------------------------------------------------------------|
Bb|--------13-10--------13-----------13-10--------13-----------------|
Gb|---10-----------10------12----10----------10------12--------------| x2
Db|-0----0-------0----0--------8----8------8----8--------------------|
Ab|------------------------------------------------------------------|
C#|------------------------------------------------------------------|
  [----------------------------------------------------]
Let ring

Intro 2 w/ Wah and Delay (Tremelo pick)
      -Listen for length/duration of notes to know how long to pick each one
eb|------------------------|
Bb|-/18-17-15-13-10-8-6~---|
Gb|------------------------|
Db|------------------------|
Ab|------------------------|
C#|------------------------|

Verse 1
      -Listen for timing of each note
eb|---------------------------------------------|
Bb|------13~--------10~------13~--------10~-----|
Gb|---10-------10-9-------10-------10-9---------|
Db|-0--------8----------0--------8--------------|
Ab|---------------------------------------------|
C#|---------------------------------------------|

Pre-chorus
eb|-----0---------------|
Bb|-3---1---6---11--11--|
Gb|-2---0---5---10--10--|
Db|-0---2---3---8---8---|
Ab|-0---3---3---8---8---|
C#|-0-------3---8---8---|

Chorus
eb|------------------------------------------------------------------------|
Bb|------------------------------------------------------------------------|
Gb|------------------------------3-3-3-3--3333--3-3-3-3--3333--------------|
Db|-0-0-0-0--0000--0-0-0-0--0000-3-3-3-3--3333--3-3-3-3--3333--------------|
Ab|-0-0-0-0--0000--0-0-0-0--0000-1-1-1-1--1111--1-1-1-1--1111--------------|
C#|-0-0-0-0--0000--0-0-0-0--0000-------------------------------------------|

Break
eb|--------------------------|
Bb|--------13-10--------13~--|
Gb|---10-----------10--------|
Db|-0----0-------0----0------|
Ab|--------------------------|
C#|--------------------------|

Verse 2
eb|------------------------------------------|
Bb|------13~--------10~------13~--------10~--|
Gb|---10-------10-9-------10-------10-9------|
Db|-0--------8----------0--------8-----------|
Ab|------------------------------------------|
C#|------------------------------------------|

eb|------------------------------------------------------------------|
Bb|--------13-10--------13-----------13-10--------13-----------------|
Gb|---10-----------10------12----10----------10------12--------------| x2
Db|-0----0-------0----0--------8----8------8----8--------------------|
Ab|------------------------------------------------------------------|
C#|------------------------------------------------------------------|
   (We want it all...)

Pre-Chorus 2
eb|-----0---------------0--------------------------------------------------|
Bb|-3---1---6---11--3---1---6----------------------------------------------|
Gb|-2---0---5---10--2---0---5----------------------------------------------|
Db|-0---2---3---8---0---2---3----------------------------------------------|
Ab|-0---3---3---8---0---3---3---8-8-8-8-8-8-8------------------------------|
C#|-0-------3---8---0-------3---8-8-8-8-8-8-8------------------------------|
                                . . . . . . . (Becoming less P.M. as you go)

Chorus 2
eb|------------------------------------------------------------------------|
Bb|------------------------------------------------------------------------|
Gb|------------------------------3-3-3-3--3333--3-3-3-3--3333--------------|
Db|-0-0-0-0--0000--0-0-0-0--0000-3-3-3-3--3333--3-3-3-3--3333--------------|
Ab|-0-0-0-0--0000--0-0-0-0--0000-1-1-1-1--1111--1-1-1-1--1111--------------|
C#|-0-0-0-0--0000--0-0-0-0--0000-------------------------------------------|

eb|---------------------------------------|
Bb|---------------------------------------|
Gb|---------------3-3-3--3-3-3-3-3-3-3-3--|
Db|-0-0-0--0-0-0--3-3-3--3-3-3-3-3-3-3-3--|
Ab|-0-0-0--0-0-0--1-1-1--1-1-1-1-1-1-1-1--|
C#|-0-0-0--0-0-0--------------------------|

They're much too young, to be livin' like this

Solo w/ lots of Delay
eb|-----------------------------------------|
Bb|-----------------------------------------|
Gb|-------10------------9-10-9--------------|
Db|-10-12----12~--10-12--------10-----------|
Ab|-------------------------------10/12-10~-|
C#|-----------------------------------------|

They're much too young, to be livin' like this

eb|------------------------------------------------------------------------|
Bb|------------------------------------------------------------------------|
Gb|-------10-12-14-12~~-------10-12-14-14-14-12-10-14-12~~-----------------|
Db|-10h12---------------10h12----------------------------------------------|
Ab|------------------------------------------------------------------------|
C#|------------------------------------------------------------------------|

eb|------------------------------------------------------------------------|
Bb|-----------------13-----------------------------------------------------|
Gb|-------10~-------12b-12-10------17b-17-14-12-10-10h12p10-------10-12----|
Db|-10h12-----12--------------12~---------------------------12-12----------|
Ab|------------------------------------------------------------------------|
C#|------------------------------------------------------------------------|

eb|------------------------------------------------------------------------|
Bb|-----------------------------15~~15~15~~15~15~~15~15~~15~-17~-15-17-18~-|
Gb|-14~~14~14~~14~14~~14~14~~14~-------------------------------------------|
Db|------------------------------------------------------------------------|
Ab|------------------------------------------------------------------------|
C#|------------------------------------------------------------------------|

eb|------------------------------------------------------------------------|
Bb|-17-18-20--18-20-20b-20b-20b-20b-20-18-20b-20(22)-20-18----20b-20-18----|
Gb|--------------------------------------------------------17--------------|
Db|------------------------------------------------------------------------|
Ab|------------------------------------------------------------------------|
C#|------------------------------------------------------------------------|

eb|-----20-----20----------------------------------------------------------|
Bb|-20b----20b----20-18-20--20-18-----------20-----------------------------|
Gb|-------------------------------19-17-19--19b-19-17----------------------|
Db|---------------------------------------------------19-17-19-------------|
Ab|------------------------------------------------------------------------|
C#|------------------------------------------------------------------------|

eb|-----------------------------|
Bb|--------------------------x--|
Gb|-10-7-10-7-10-7-12-10-7~~-x--|
Db|--------------------------x--|
Ab|-----------------------------|
C#|-----------------------------|

Chorus 3
eb|------------------------------------------------------------------------|
Bb|------------------------------------------------------------------------|
Gb|------------------------------3-3-3-3--3333--3-3-3-3--3333--------------|
Db|-0-0-0-0--0000--0-0-0-0--0000-3-3-3-3--3333--3-3-3-3--3333--------------|
Ab|-0-0-0-0--0000--0-0-0-0--0000-1-1-1-1--1111--1-1-1-1--1111--------------|
C#|-0-0-0-0--0000--0-0-0-0--0000-------------------------------------------|

eb|------------------------------------------------------------------------|
Bb|------------------------------------------------------------------------|
Gb|------------------------------3-3-3-3--3333--3-3-3-3--3333-5-5-5-5-5----|
Db|-0-0-0-0--0000--0-0-0-0--0000-3-3-3-3--3333--3-3-3-3--3333-5-5-5-5-5----|
Ab|-0-0-0-0--0000--0-0-0-0--0000-1-1-1-1--1111--1-1-1-1--1111-3-3-3-3-3----|
C#|-0-0-0-0--0000--0-0-0-0--0000-------------------------------------------|

eb|---------------|
Bb|---------------|
Gb|-5-5-5-5-5-5-7-|
Db|-5-5-5-5-5-5-7-|
Ab|-3-3-3-3-3-3-5-|
C#|---------------|
    . . . . . .

Outro
eb|------------------------------------------------------------------------|
Bb|------------------------------------------------------------------------|
Gb|------------------------------3-3-3-3--3333--3-3-3-3--3333--------------|
Db|-0-0-0-0--0000--0-0-0-0--0000-3-3-3-3--3333--3-3-3-3--3333--------------|
Ab|-0-0-0-0--0000--0-0-0-0--0000-1-1-1-1--1111--1-1-1-1--1111--------------|
C#|-0-0-0-0--0000--0-0-0-0--0000-------------------------------------------|

eb|---------------------------------------|
Bb|---------------------------------------|
Gb|---------------3-3-3--3-3-3-3-3-3-3-3--|
Db|-0-0-0--0-0-0--3-3-3--3-3-3-3-3-3-3-3--|
Ab|-0-0-0--0-0-0--1-1-1--1-1-1-1-1-1-1-1--|
C#|-0-0-0--0-0-0--------------------------|

That's it
Tap to rate this tab
# A B C D E F G H I J K L M N O P Q R S T U V W X Y Z