Song name
# A B C D E F G H I J K L M N O P Q R S T U V W X Y Z

This Love - Dear Carolina tab

This Love - Dear Carolina (NOT the acoustic version)

Tuning: eadgbe

intro:

e|-------------------------------------------------|
b|-------------------------------------------------|
g|-12-12-12-12-19-19-19-19-11-11-11-11-17-17-16-16-|
d|-------------------------------------------------|
a|-------------------------------------------------|
e|-------------------------------------------------|


e|----------------------------------------------------|
b|----------------------------------------------------|
g|-12-12-12-12-19-19-19-19-11-11-11-11-17-17-11-11-12-|
d|----------------------------------------------------|
a|----------------------------------------------------|
e|----------------------------------------------------|



post intro

e|-3--------------------------------------------------|
b|---3------------------------------------------------|
g|-----0----------------------------------------------|
d|----------------------------------------------------|
a|----------------------------------------------------|
e|----------------------------------------------------|


verse: (1x at each chord)

G, D, A, (silence), 
G, D, A, BM,
G, D, A, BM,
G, D, A, BM



1:28:

gitar 2:



e|----------------------------------------------------|
b|----------------------------------------------------|
g|-9/11-12--14\12--9/11-12--11------------------------|
d|----------------------------------------------------|
a|----------------------------------------------------|
e|----------------------------------------------------|




bridge:


e|----------------------------------------------------|
b|----------------------------------------------------|
g|-9/11-12--14\12--9/11-12--11-12---------------------|
d|----------------------------------------------------|
a|----------------------------------------------------|
e|----------------------------------------------------|



chorus:



e|-------------------------------------------------|
b|-------------------------------------------------|
g|-12-12-12-12-19-19-19-19-11-11-11-11-17-17-16-16-|
d|-------------------------------------------------|
a|-------------------------------------------------|
e|-------------------------------------------------|


e|----------------------------------------------------|
b|----------------------------------------------------|
g|-12-12-12-12-19-19-19-19-11-11-11-11-17-17-16-16-12-|
d|----------------------------------------------------|
a|----------------------------------------------------|
e|----------------------------------------------------|


outtro: chorus x3. Hold hold the last note.
Tap to rate this tab
 
# A B C D E F G H I J K L M N O P Q R S T U V W X Y Z