Song name
# A B C D E F G H I J K L M N O P Q R S T U V W X Y Z

This Mortal Coil - You And Your Sister tab

----------------------------------------------------------------------------
THIS MORTAL COIL - You and Your Sister		Capo 1	     http://www.4ad.com/thismortalcoil/
----------------------------------------------------------------------------
INTRO (x1 only) and 1st VERSE (You say my love...)
|------------------|------------------|------------------|----------0-----0-*||
|-2-----2--------2-|-3-----3--------3-|-3-----3--------3-|-3-----3------0---*||
|-----2--------2---|-----4--------4---|-----4--------4---|-----4------1-----*||
|---2--------2-----|---4--------4-----|---4--------4-----|---4--------------*||
|-0--------0-------|-2--------2-------|------------------|------------------*||
|------------------|------------------|-0--------0-------|-0--------0-------*||

CHORUS (All I want to do...)

|-------2--------2-|-------2--------2-|-0-----0--------0-|------------------|
|-2---2--------2---|-4----------------|-----0--------0---|------------------|
|------------------|-----4--------4---|---1--------1-----|-6-----6--6-----6-|
|---4--------4-----|---4--------4-----|------------------|-----7--------7---|
|------------------|-2--------2-------|------------------|---7--------7-----|
|-2--------2-------|------------------|-0--------0-------|-5--------4-------|

|------------------|------------------|-0-----0--------0-|-0-----0--------0-|
|-2-----2--------2-|-4-----4--------4-|-----0--------0---|-----0--------0---|
|-----2--------2---|-----4--------4---|---1--------1-----|---1--------1-----|
|---4--------4-----|---4--------4-----|------------------|------------------|
|------------------|-2--------2-------|------------------|------------------|
|-2--------2-------|------------------|-0--------0-------|-0--------0-------|

2nd VERSE (Your sister says that...)
CHORUS

BRIDGE 1 (Friends fail every day...)

e|---------------------------|-0-----0--------0-|-0-----0--------0-*||
B|-3-----3--5-----5--7-----7-|-----0--------0---|-----0--------0---*||
G|-----4--------6--------7---|---1--------1-----|---1--------1-----*||
D|---4--------6--------7-----|------------------|------------------*||
A|-2--------4--------5-------|------------------|------------------*||
E|---------------------------|-0--------0-------|-0--------0-------*||

BRIDGE 2 (Your love won't be leaving...)

e|-2-----2--------2-|-0-----0--------0-|------------------|------------------|
B|-----2--------2---|-----2--------2---|-4-----4--------4-|-4-----4--------4-|
G|------------------|---2--------2-----|-----4--------7---|-----4--------4---|
D|---4--------4-----|------------------|---7--------7-----|---7--------7-----|
A|------------------|------------------|-6--------6-------|-6--------6-------|
E|-2--------2-------|-0--------0-------|------------------|------------------|

e|-2-----2--------2-|-0-----0--------0-|------------------|------------------|
B|-----2--------2---|-----2--------2---|-4-----4--------4-|-4-----4--------4-|
G|------------------|---2--------2-----|-----4--------7---|-----4--------4---|
D|---4--------4-----|------------------|---7--------7-----|---7--------7-----|
A|------------------|------------------|-6--------6-------|------------------|
E|-2--------2-------|-0--------0-------|------------------|-7--------7-------|

 
BRIDGE 1(Fears will soon fade away...)
CHORUS
3rd VERSE(So let me whisper in your...)
CHORUS

Then,


e|-0-|
B|-0-|
G|-1-|
D|---|
A|---|
E|-0-|

Verse 1
You say my love for you's not real
But you don't know how real it feels

Chorus
All I want to do
Is to spend some time with you
So I can hold you, hold you

Verse 2
Your sister says that I'm no good
I'd reassure her if I could

Chorus
All I want to do
Is to spend some time with you
So I can hold you, hold you

Bridge 1
Friends fail every day
I want to hear you say

Bridge 2
Your love won't be leaving
Your eyes aren't deceiving

Bridge 1
Fears will soon fade away
Smile now, don't be afraid

Chorus
All I want to do 
Is to spend some time with you
So I can hold you, hold you

Verse 3
So let me whisper in your ear
Don't you worry they can't hear

Chorus
All I want to do 
Is to spend some time with you
So I can hold you, hold you


Tap to rate this tab
# A B C D E F G H I J K L M N O P Q R S T U V W X Y Z