Song name
# A B C D E F G H I J K L M N O P Q R S T U V W X Y Z

This Or The Apocalypse - Subverse tab

I figured this all out by ear so it's probably not perfect but it sounds
correct to me. I have most of the parts its basically in order but you can
figure it out if it isn't.
Tuning - Drop B

Intro Tap
--19p0-12p0-10h12p0-14h15p0-10p0h12p0-10h12-------------------|
--------------------------------------------------------------|
--------------------------------------------------------------|
--------------------------------------------------------------|
--------------------------------------------------------------|
--------------------------------------------------------------|


--19p0-12p0-10h12p0-8p0-5h7p0-14h15---------------------------|
-------------------------------------15-----------------------|
--------------------------------------------------------------|
--------------------------------------------------------------|
--------------------------------------------------------------|
--------------------------------------------------------------|

Verse
--------------------------------------------------------------|
--------------------------------------------------------------|
--4-------------------4---------------------------------------|
-----2p0-4h5-------------2p0-4h5---------2p0-4h5--------------|
-------------0-0-0-0---------------3-3------------3-3-3-3-----|
--------------------------------------------------------------|


---------------------------------------------------------------|
---------------------------------------------------------------|
--------------4---------------------4--------------------------|
-------4h5p0-----2p0-4h5----------------2p0-4h5--------2p0-4h5-|
---------------------------------------------------------------|
---2-----------------------2-2-2-2----------------5-5----------|


--------------------------------------------------------------|
--------------------------------------------------------------|
--------------------------------------------------------------|
-------/9-----------------------------------------------------|
----------9-5-------------------------------------------------|
--5-5---------------------------------------------------------|

Pre-Chorus
--------------------------------------------------------------|
--------------------------------------------------------------|
--------------------------------------------------------------|
--2-2-0-0-2---------2-2-0-0-2------2-0-0-2-----------4h5p0----|
--------------------------------------------------------------|
------------2-2-2-2-----------2-2----------2-2-2-2-0----------|


--------------------------------------------------------------|
--------------------------------------------------------------|
--------------------------------------------------------------|
-2-2-0-0-2-----------2-2-0-0-2--------2-0-0-2---------2-------|
------------------------------------------------------2-------|
-------------2-2-2-2------------2-2------------2-2-2--2-------|

Chorus
--------------------------------------------------------------|
--------------------------------------------------------------|
--------------------------------------------------------------|
14----12---10----7---2---0----10---7--------------------------|
14----12---10----7---2---0----10---7--------------------------|
14----12---10----7---2---0----10---7--------------------------|

Guitar 2 Chorus
-------------------------------17-19-17-19-17-15--------------|
---19-20-19-20-17-20-17-19-17--------------------19-15--------|
--------------------------------------------------------------|
--------------------------------------------------------------|
--------------------------------------------------------------|
--------------------------------------------------------------|


------------------------------17-19-17-19-17-19-17-19---------------|
--19-20-19-20-17-20-17-19--17---------------------------------------|
--------------------------------------------------------------------|
--------------------------------------------------------------------|
--------------------------------------------------------------------|
--------------------------------------------------------------------|

Solo
-----------8----------------------17------19-------------------------------|
-------------8-----10brp8----/15------15-----------------------------------|
--4--7--4------9----------9-------------------9-7-9-7----------------------|
------------------------------------------------------9-7-9-7------/9------|
--------------------------------------------------------------10-7----9--5-|
---------------------------------------------------------------------------|

Pre-Breakdown Harmonized Tapping
----15p0--8p0-7h8p0--8h10p0-7p0-8p0-7h8-15p0-8p0-h7h8p0------------------|
-------------------------------------------------------------------------|
-----------------------------------------------------------------/9------|
-----------------------------------------------------------0---------9-5-|
-----------------------------------------------------------0-------------|
-----------------------------------------------------------0-------------|

Breakdown
-------------------------------------------------------------------------|
-------------------------------------------------------------------------|
-------------------------------------------------------------------------|
-2-2-0-0-2---2-2-0-0-2---2-0-0-2---0--4h5p0---2-2-0-0-2---2-2-0-0-2------|
-2-2-0-0-2---2-2-0-0-2---2-0-0-2---0----------2-2-0-0-2---2-2-0-0-2------|
-2-2-0-0-2---2-2-0-0-2---2-0-0-2---0----------2-2-0-0-2---2-2-0-0-2------|


---------------------------------------------------------------------|
---------------------------------------------------------------------|
---------------------------------------------------------------------|
-2-0-0-2-------2-2-0-0-2---2-2-0-0-2---2-0-0-2--3ph-2-2-0-0-2--------|
-2-0-0-2-------2-2-0-0-2---2-2-0-0-2---2-0-0-2------2-2-0-0-2--------|
-2-0-0-2-------2-2-0-0-2---2-2-0-0-2---2-0-0-2------2-2-0-0-2--------|


-----------------------------------------------------------------------|
-----------------------------------------------------------------------|
-----------------------------------------------------------------------|
--2-2-0-0-2---2-0-0-2---/9---------------------------------------------|
--2-2-0-0-2---2-0-0-2-------9--5---------------------------------------|
--2-2-0-0-2---2-0-0-2--------------------------------------------------|

repeatedly pick these
----------------------------------------------------------|
----------------------------------------------------------|
---9-7-4--11-12-11----------------------------------------|
----------------------------------------------------------|
----------------------------------------------------------|
----------------------------------------------------------|


----------------------------------------------------------------------------|
----------------------------------------------------------------------------|
----------------------------------------------------------------------------|
--2-222222--4--4---4h5--222222-0x-0x-0x------------4--4--4h5---------4---4--|
--2-222222--------------222222-0x-0x-0x---3-333333---3--3----555555----5----|
--2-222222----2--2------222222-0x-0x-0x-------------------------------------|


------------------------19/-----------------------------|
--------------------------------------------------------|
--------------------------------------------------------|
----4-9--<<-Reapeat-this-2------------------------------|
--5----------------------2------------------------------|
-------------------------2------------------------------|
Tap to rate this tab
 
# A B C D E F G H I J K L M N O P Q R S T U V W X Y Z