Song name
# A B C D E F G H I J K L M N O P Q R S T U V W X Y Z

This Providence - Keeping On Without You tab

-------------------------------------------------------------------------------
	        KEEPING ON WITHOUT YOU - THIS PROVIDENCE
-------------------------------------------------------------------------------
Tabbed by: brian


Tuning: Standard

Sorry it's so disorganised guys, i hope you still find it playable, enjoy!

Intro/Verse/(Played through chorus as well by either bass or guitar):

Bass/Guitar 1

e|---------------------------------------------------------------------------|
B|---------------------------------------------------------------------------|
G|---------------------------------------------------------------------------|
D|---------------------------------------------------------------------------|
A|-----------------------4-------------------4-4-4-4-4-4-4-4-----------------|
E|-4-4-4-4-4-4-4-4-6-4-6---6-4-2-2-2-2-2-4-2---------------------------------|

Guitar 2

e|---------------------------------------------------------------------------|
B|--------4-----------------6---------------6-----------4--------------------|
G|----6-------6---6-----6------6---6----6-----6---6---6----6---6-------------|
D|--6---6-------6-----6---6------6----4---4-----4---6--------6---------------|
A|---------------------------------------------------------------------------|
E|---------------------------------------------------------------------------|

Chorus: 

Guitar 1

Work out strumming yourselves, it's easy
e|---------------------------------------------------------------------------|
B|---------------------------------------------------------------------------|
G|-6-------------------------------------------------------------------------|
D|-6---6---8---4-------------------------------------------------------------|
A|-4---6---8---4-------------------------------------------------------------|
E|-----4---6---2-------------------------------------------------------------|

Guitar 2 plays the same

Bridge:

Work out strumming yourselves

e|---------------------------------------------------------------------------|
B|---------------------------------------------------------------------------|
G|-8-----8-----8-------------------------------------------------------------|
D|-8--4--8--4--8--4--6-------------------------------------------------------|
A|-6--4--6--4--6--4--6-------------------------------------------------------|
E|----2-----2-----2--4-------------------------------------------------------|

Acoustic guitar part

e|---------------------------------------------------------------------------|
B|---------------------------------------------------------------------------|
G|-6-------------------------------------------------------------------------|
D|-6--6--8--4----------------------------------------------------------------|
A|-4--6--8--4----------------------------------------------------------------|
E|----4--6--2----------------------------------------------------------------|

Synthesiser or something playing in the background riff

e|---------------------------------------------------------------------------|
B|-------9---9-7-6---6-------------------------------------------------------|
G|--6-8-----------8---6------------------------------------------------------|
D|---------------------------------------------------------------------------|
A|---------------------------------------------------------------------------|
E|---------------------------------------------------------------------------|


END.

| /  slide up
| \  slide down
| h  hammer-on
| p  pull-off
| ~  vibrato
| +  harmonic
| x  Mute note
===============================================================================
Tap to rate this tab
# A B C D E F G H I J K L M N O P Q R S T U V W X Y Z