Song name
# A B C D E F G H I J K L M N O P Q R S T U V W X Y Z

This Providence - Somebody To Talk To tab

This Providence
Somebody To Talk To



Verses:
d# |-----------------------------------------------|
A# |-----------------------------------------------|
F# |-----------------------------------------------|
C# |--------------77777777--------------99999999---|
G# |---77777777---55555555---77777777---77777777---|
D# |---55555555--------------55555555--------------|
    "I need somebody to talk to..."
    "My sins caught up to you..."
    "I hate, hate, hate..."


d# |--------------------------------------------------|
A# |--------------------------------------------------|
F# |-------------------------9999---7777--------------|
C# |--------------77777777---9999---7777---77777777---|
G# |---77777777---55555555---7777---5555---77777777---|
D# |---55555555----------------------------55555555---|
    "I need somebody to understand..."
    "I lost the best love that..." 
    "A brightly lit tragedy..."

Chorus:

d# |-----------------------------------------------|
A# |-----------------------------------------------|
F# |---77777777---99999999-------------------------|
C# |---77777777---99999999--x3----------77777777---|
G# |---55555555---77777777--------------77777777---|
D# |------------------------------------55555555---|
    "Even after all my mistakes..."   "You came through..."

Variation: 

d# |-----------------------------------------------|
A# |-----------------------------------------------|
F# |---77777777---99999999---77777777--------------|
C# |---77777777---99999999---77777777---44444444---|
G# |---55555555---77777777---55555555---44444444---|
D# |------------------------------------22222222---|

d# |------------------------------------|
A# |------------------------------------|
F# |---77777777---99999999--------------|
C# |---77777777---99999999---77777777---|
G# |---55555555---77777777---77777777---|
D# |-------------------------55555555---|
    "You came through..."

Bridge:

d# |----------------------------------------------------|
A# |----------------------------------------------------|
F# |---77-66-77-66---77-66-77-66---77777777-666 77777---|
C# |---77-77-77-77---77-77-77-77------------------------|
G# |-----------------55-55-55-55---77777777-777-77777---|
D# |---77-77-77-77-----------------55555555-555-55555---|
    "I believe in miracles..."

Outro:

d# |------------------------------------------------------------------5~---|
A# |------------------------------------------------------------------5~---|
F# |---77777777---77777777---7777777777777777---77777777---99999999---6~---|
C# |---77777777---77777777----------------------77777777---99999999---7~---|
G# |--------------55555555---7777777777777777---55555555---77777777---7~---|
D# |---77777777--------------5555555555555555-------------------------5~---|
    "Even after all my mistakes..."   			              "You came through..."




Tap to rate this tab
 
# A B C D E F G H I J K L M N O P Q R S T U V W X Y Z